All out of love

Air Supply

 Air Supply
Tono: C
		
Intro:
 

      C                G/B              F                           G
E|-------0-----------------3------------------1-------------------------------|
B|---------1-----------------3------------------1------------------------0----|
G|-----0-----0-----------0-----0-----------2------2-----------2--------0------|
D|---2---------2-------0---------0-------3----------3-------3--------0--------|
A|-3-----------------2-----------------------------------3--------------------|
E|------------------------------------1---------------1-----------3-----------|


     C
E|-------0-----------------0------------|
B|---------1-----------------1----------|
G|-----0-----0-----------0-----0--------|
D|---2---------2-------2----------------|
A|-3-----------------3------------------|
E|--------------------------------------|



     F                   C
I'm lying alone with my head on the phone,
  F                      C
thinking of you 'til it hurts
    F                         C
I know you're hurt too, but what else can we do,
    F            C
tormented and torn apart.
   F                        C
I wish I could carry your smile in my heart,
     F                           C
For times when my life seems so low.
    F                         C
It would make me believe what tomorrow could bring,
        F                         G
When today doesn't really know, Doesn't really know.

Refrão:
    C                    G
I'm all out of love, I'm so lost without you,
    F                                G
I know you were right, believing for so long.
    C                     G
I'm all out of love, what am I without you?
   F                               G       C
I can't be too late to say that I was so wrong.

  F                          C
I want you to come back and carry me home,
  F                           C
Away from these long, lonely nights.
     F           		 C
I'm reaching for you. Are you feeling it too?
           F              C
Does the feeling seem oh, so right?
      F 	            C
And what would you say if I called on you now,
     F                     C
And said that I can't hold on?
        F                     C
There's no easy way, it gets harder each day,
        F                                G
Please love me or I'll be gone.  I'll be gone.

(Refrão)

    C                    G
I'm all out of love, I'm so lost without you,
    F                                G
I know you were right, believing for so long.
    C                     G
I'm all out of love, what am I without you?
   F                               G       C
I can't be too late to say that I was so wrong.

Passagem:


      C      G/B       Am
E|--------------------0----------|
B|-------1-------0----1----------|
G|-----0-------0------2----------|
D|---2-------0--------2----------|
A|-3-------2----------0----------|
E|-------------------------------|

 
 Am      G                    F     F Em Dm
Oooo....What are you thinking of
Dm                      Am
What are you thinking of
G                     F   F Em Dm
What are you thinking of
Dm                      Am  F G
What are you thinking of

(Refrão)

   C                    G
I'm all out of love, I'm so lost without you,
    F                                G
I know you were right, believing for so long.
    C                     G
I'm all out of love, what am I without you?
   F                               G       C
I can't be too late to say that I was so wrong.

Comentarios 2

  • danireis16 danireis16: Publicado en 15/01/2014 22:02

    o tom é g#

  • axl axl: Publicado en 03/12/2011 11:20

    kra porq vcs não colocam a cifra completa no tom original?

Composición: Agustín Lara Y Sus Ritmos / Ben Osmundson / Canário / Herivelto Martins
Ese no és el compositor? Avisenos.
Contribución: Nielson Correcciónes: cassiogr , caio.jhoni e mais 4 »
Consigo tocarSin embargo, para tocar esta canción. ¡Sé el primero!
    Aún no puedo reproducir
    Exhibir acordes »
    publicidad
    cerrar