True to myself

Ziggy Marley

 Ziggy Marley
Tono: C#
		
Intro: C#9  G#7  Eb7
Solo:

E|----------------------------------------------------------|
B|----------------------------------------------------------|
G|-----------6-------------5---------------6-------------5--|
D|----------------------------------------------------------|
A|-----4-4-------4-6---------------4-6-6---------4/6-6------|
E|-4-6---------------4-4-------4-6-------------6------------|


C#9                  G#7                  Ebm7
Life has come a long way since yesterday     I say
C#9                  G#7                  Ebm7
And its not the same old thing over again I say
C#9                  G#7                  Ebm7
Just do what you feel and don't you fool yourself I say
C#9                  G#7                  Ebm7
Cause I can't make you happy unless I am I say I say I

E|------------------------------------------------9--9--9--9-----9--9----9--|
B|-------------11-9-6------------6----------------11-11-11-11----11-11---11-|
G|-----------6--------6-6-8--6-8---8-6------------11-11-11-11----11-11---11-|
D|-------------------------------------8-6--------11-11-11-11----11-11---11-|
A|-----4-4------------------------------------------------------------------|
E|-4-6----------------------------------------------------------------------|


C#9                   G#7          Ebm7
Got to be true to myself,    Got to be true to myself
C#9                  G#7                  Ebm7
 Day in day out I've asked many questions I say
C#9                  G#7                  Ebm7
Only to find the truth it never changes I say
C#9                  G#7                  Ebm7
If you don't deal with it it keeps killing you a little by little I say
C#9                  G#7                  Ebm7
Call me selfish if you will my life I alone can live I say I say I

C#9                    G#7            Ebm7
Got to be true to myself,    Got to be true to myself

      C#9                  G#7                  Ebm7
Solo:

E|------------------------------------------------9-----9--9------|
B|-----6-------------------6----------6-----------11----11-11-----|
G|-------8-6-8---------6-8---6-8--------8-6-8-----11----11-11-----|
D|-6-8---------8---6-8------------6-8---------6---11----11-11-----|
A|----------------------------------------------------------------|
E|----------------------------------------------------------------|


C#9                  G#7                  Ebm7
I don't care if it hurts I'm tired of lies and all these games
C#9                  G#7                  Ebm7
I've reached a point in life no longer can I be this way
C#9                  G#7                  Ebm7
Don't come crying to me I too have shed my share of tears
C#9                  G#7                  Ebm7
I'm moving on yes I'm grooving on well I'm finally free I've

                                    Ebm7
Got to be true to myself,    Got to be true to myself
C#9                    G#7          Ebm7
Got to be true to myself,    Got to be true to myself
C#9
Got to be true
G#7
Got to be true
Ebm7
Got to be true to myself
C#9
Got to be true
G#7
Got to be true
Ebm7
Got to be true to myself
615 exhibiciónes

Comentarios 0

Composición: Lowman / Takashi Kimura
Ese no és el compositor? Avisenos.
Contribución: eduvalim Correcciónes: germano.gomes »
Exhibir acordes »
publicidad
cerrar