Zezé Di Camargo e Luciano

Dois Corações e Uma História

299 reproducciones
Tono: A
Intro:

Parte 1


             D          E
E|-------5-4-2------------------------------|
B|---------------3------5-------5-----------|
G|---4/6---4---2------------4-------4-------|
D|-----------0------4/6---6---6---6---6-----|
A|-0----------------------------------------|
E|----------------------0-------------------|


Parte 2


               D       E
E|----9--9-7-7-5-----4-4hp4-------4---------|
B|---10-10-9-9-7---7-5-5------5-------5-----|
G|---------------7----------4---4---4---4---|
D|-------------0----------------------------|
A|-0----------------------------------------|
E|---------------------0--------------------|


Parte 3


             D          E
E|-------5-4-2------------------------------|
B|---------------3------5-------5-----------|
G|---4/6---4---2------------4-------4-------|
D|-----------0------4/6---6---6---6---6-----|
A|-0----------------------------------------|
E|----------------------0-------------------|


Parte 4


               D       E
E|----9--9-7-7-5-----4-4hp4---5---7---10----|
B|---10-10-9-9-7---7-5-5------7---9---12----|
G|---------------7----------4---------------|
D|-------------0----------------------------|
A|-0----------------------------------------|
E|---------------------0--------0---0----0--|


Parte 5


E|--9------9--------------------------------|
B|-10---10--------3--2----------------------|
G|----9-------------------------------------|
D|------------2/4---------------------------|
A|-------------------0----------------------|
E|------------------------------------------|


Primeira Parte – Primeira Estrofe:

               Bm
No meio da conversa
                 E
De um caso terminando
                     A   A7M
Um fala e o outro escuta 
            A6         F#m
E os olhos vão chorando
       Bm
A lógica de tudo 
         E
É o desamor que chega
           A           A7M
Depois que um descobre 
             A         Bm7  A/C#
Que o outro não se entrega

Dedilhado Primeira Parte - Primeira Estrofe:

Primeira Parte – Primeira Estrofe:


   Bm      E       A       A7M    A6     F#m
E|-------2-------0------------------------2-|
B|-------3-------0-------5------5------5--2-|
G|-----4-------1-------6------6------6----2-|
D|---4-------2-------7------6------4------4-|
A|-2---------------0------0------0--------4-|
E|---------0------------------------------2-|


     Bm      E       A       A7M  A  Bm7 A/C#
E|-------2-------0--------------------------|
B|-------3-------0-------5------5-2---3---5-|
G|-----4-------1-------6------6---2---2---2-|
D|---4-------2-------7------6-----2---0---2-|
A|-2---------------0------0-------0---2---4-|
E|---------0--------------------------------|


Primeira Parte – Segunda Estrofe:

          Bm
Quem vai sair arruma 
    E
As coisas põe na mala
    A               A7M
Enquanto o outro fuma 
    A6             F#m
Um cigarro na sala
     Bm
E o coração palhaço 
   E
Começa a bater forte
           D       D/E
Quem fica não deseja 
             A
Que o outro tenha sorte

Refrão:

              D
E longe um do outro
                 E
A vida é toda errada
                  A
O homem não se importa 
                   F#
Com a roupa amarrotada
                Bm
E a mulher em crise 
                E
Quantas vezes chora
                 D               E
A dor de ter perdido um grande amor 
     A         F  Bb
Que foi embora

Segunda parte:
                  Cm
Mas quando vem a volta
              F
O homem se arruma
                   Bb   Bb7M
Faz barba, lava o carro 
                 Bb6  Gm
Se banha, se perfuma
             Cm
E liga pro amigo 
                   F
Que tanto lhe deu força
              Bb  Bb7M
E jura nunca mais 
           Bb6       Bb/D
Vai perder essa moça

            Cm
E a mulher se abraça 
        F
À mãe, diz obrigado
         Bb      Bb7M
E põe aquela roupa 
              Bb6      Gm
Que agrada o seu amado
           Cm
E passa a tarde toda 
          F
Cuidando da beleza
          Eb
Jantar à luz de velas 
F            Bb
  E amor de sobremesa

Refrão Final:

              Eb
E perto um do outro 
              F
A vida é diferente
             Bb
A solidão dá espaço 
                      G
Ao amor que estava ausente
                   Cm
Quem olha não tem jeito 
             F
De duvidar agora
                Eb
Da força da paixão que tem
F                   Bb
  Dois corações e uma história

              Eb
E perto um do outro 
              F
A vida é diferente
             Bb
A solidão dá espaço 
                      G
Ao amor que estava ausente
                   Cm
Quem olha não tem jeito 
             F
De duvidar agora
                Eb
Da força da paixão que tem
F                         Bb   Gm
  Dois corações e uma história
                Cm
Da força da paixão que tem
F                   Bb         Eb  F
  Dois corações e uma história

Bb  Eb  F  Bb
    Composición: Carlos Randall/DanimarColaboración y revision:
    • Leo Eymard
    • Adalberto B. L. Jr.
    • danilo

    Comentarios 1

    • gustavo gustavo : Publicado en 07/09/2014 15:55

      fica boa no tom de sol maior

    ¿conseguiste tocar?

    • Douglas
    • gustavo
    • Michael
    • acte
    • rafaelbtos
    • vm7
    • valdirbrito
    • •••

    covers

    ¡Grave un vídeo tocando Dois Corações e Uma História y envie para nosotros!

    Ex.: http://www.youtube.com/watch?v=0IvSvIwGdwk
    ver cover de otras canciones »
    0:00 / 0:00

    Capitulos

      1 versão de Guitar Proformatodownloadscontribuición
      play/pausefechar subir/bajar velocidad
      6ª cuerda E5ª cuerda A4ª cuerda D3ª cuerda G2ª cuerda B1ª cuerda E
        acordes
        versão revisada
        Leo Eymard instrutor de guitarra
        publicidad
        cerrar
        ok