Vampiro

Zapato 3

Sin foto de Zapato 3
Tono: C
		
 INTRO

E|-----------------------------------------
B|-----------------------------------------
G|-----------------------5-5-5-------------
D|--------3-5-3--5/7--7--------------------
A|-5--5------------------------------------
E|-----------------------------------------


[Am Dm ][Am Dm ][Am Dm ][G    ][F    ]x2
(estos tres secciones
llevan los mismos acordes
pero el ritmo es diferente
en cada seccion)


 Estrofa

Am                    Dm
Siempre esta deseando mas
Am                    Dm
Siempre esta exigiendo mas
Am                    Dm
Siempre esta deseando mas
G
Deseando
F
mas de mi


E|-----------------------------------------
B|-----------------------------------------
G|-----------------------5-5-5-------------
D|--------3-5-3--5/7--7--------------------
A|-5--5------------------------------------
E|-----------------------------------------


[Am Dm ][Am Dm ][Am Dm ][G    ][F    ]x2


Am                    Dm
Siempre esta deseando mas
Am                     Dm
Siempre esta exigiendo mas
Am                    Dm
Siempre esta deseando mas
G
Y no la puedo
F
controlar

Coro
          C        F
Porque es un vampiro
C               F
Que me quita el poder
C           F
Es un vampiro
C             F
Vestido de mujer
C           F
Es un vampiro
C                F
Ella me da que hacer
C           F
Es un vampiro
      C             F
Pero es toda una mujer


E|-----------------------------------------
B|-----------------------------------------
G|-----------------------5-5-5-------------
D|--------3-5-3--5/7--7--------------------
A|-5--5------------------------------------
E|-----------------------------------------


[Am Dm ][Am Dm ][Am Dm ][G    ][F    ]x2


Estrofa 2
repite estrofa 1 una vez

Coro hasta el final!
265 exhibiciónes

Comentarios 0

Consigo tocarSin embargo, para tocar esta canción. ¡Sé el primero!
    Aún no puedo reproducir
    Exhibir acordes »
    publicidad
    cerrar