Pra Que ?

Voz da Verdade

 Voz da Verdade
Tono: E
		
Intro: E  F#m  G#m  A  E  F#m  G#m  A  F#m  G#m  A


E|---------------------------------------------------------------------12-11-----12-11-------|
B|---7/9-7-5-7-9-10-10-9-5-7-9-9/10-9-10-12-12-10-9-5-----5-7/9-7-5-7-5------12-9------12-9--|
G|-----------------------------------------------------4-6-----------------------------------|
D|-------------------------------------------------------------------------------------------|
A|-------------------------------------------------------------------------------------------|
E|-------------------------------------------------------------------------------------------|


E         F#m G#m   A        E  E4 E
Vou lhe falar,     de um alguém
           F#m G#m    A           E  E4 E
Que pode levar,     seus sonhos além
           F#m G#m    A             E E4 E
Vou lhe mostrar,    um mundo melhor
       F#m   A        B    G#m
Que mudara      seu caminho
          A          B
Vou lhe falar de um só Deus
        G#m      C#m  E
Que mudará a sua vida
            A               B
Na cruz morreu, doou o seu sangue
         G#m           C#m  E
Só pra curar as suas feridas
       A            B
E este homem está aqui
           G#m         B
Só pra te amar e pra dizer

(Intro)

E         F#m G#m   A        E  E4 E
Vou lhe falar,     de um alguém
           F#m G#m    A           E  E4 E
Que pode levar,     seus sonhos além
           F#m G#m    A
Vou lhe mostrar

Riff:

E|-------------------------|
B|-----------2-4-4/7-5-4-5-|
G|-------2-4---------------|
D|---2-4-------------------|
A|-------------------------|
E|-------------------------|


           E    E4 E
Um mundo melhor
       F#m   A        B    G#m
Que mudará      seu caminho
          A          B
Vou lhe falar de um só Deus
        G#m      C#m  E
Que mudará a sua vida
            A               B
Na cruz morreu, doou o seu sangue
         G#m           C#m  E
Só pra curar as suas feridas
       A            B
E este homem esta aqui
           G#m         B
So pra te amar e pra dizer


    E       C#m    G#m
Pra quê? chorar, sofrer
         A             B          E
Se há um Deus que tudo pode por você
    C#m      G#m
Pra quê? solidão
      A              B               E
Deixe Jesus cristo entrar no teu coração

Solo: C#m  G#m  A  B


E|------------------------------------------------|
B|---5-4-5-----4-5-5/7--4---------------2-4-5-7-5-|
G|---------4-6------------6-4-4-----2-4-----------|
D|------------------------------2-4---------------|
A|------------------------------------------------|
E|------------------------------------------------|


   E       C#m    G#m
Pra quê? chorar, sofrer
         A             B          E
Se há um Deus que tudo pode por você
    C#m      G#m
Pra quê? solidão
      A              B               E
Deixe Jesus cristo entrar no teu coração

Solo: C#m  G#m  A  B


E|---12-11-12--7-9-11-12-11-7-7-12-11-9-7-9-7-|
B|--------------------------------------------|
G|--------------------------------------------|
D|--------------------------------------------|
A|--------------------------------------------|
E|--------------------------------------------|


   C#m     G#m
Pra quê? solidão
      A              B               A   E4  E  E4  E
Deixe Jesus cristo entrar no teu coração


E|---12-11------12-11------|
B|---------12-9-------12-9-|
G|-------------------------|
D|-------------------------|
A|-------------------------|
E|-------------------------|


Pra quê?
Texto Columnas
Alterar tom ½ tono ½ tono
sintonización acordes esconder tabs más »

Comentarios 27

  • andre.santosrodrigues.58 andre.santosrodrigues.58: Publicado en 16/10/2014 11:53

    sou fan

  • matheus92 matheus92: Publicado en 21/08/2014 13:46

    a nota certa e um E/G#

  • rodney rodney: Publicado en 19/08/2014 15:33

    ja corrigiram a cifra e a nota certa agora e G#m

  • zé zé: Publicado en 23/07/2014 16:23

    A nota E/G# TA ERRADA A VERDADEIRA É G#m

  • josiel.siqueira.5 josiel.siqueira.5: Publicado en 18/07/2014 18:21

    muito legal

  • joabecaju joabecaju: Publicado en 23/11/2013 18:07

    pura pressão linda mui unção.

  • van der son van der son: Publicado en 09/09/2013 11:30

    Muito linda!!

  • van der son van der son: Publicado en 07/09/2013 14:32

    Que cada som das cordas da minha guitarra suba até o trono do meu Deus!

  • Rubens Rubens: Publicado en 25/08/2013 21:26

    ritmo da musica e baixobaixo cimacima baixobaixo cima baixo cima

  • alex.souza alex.souza: Publicado en 30/01/2013 09:56

    mto linda amusica e facil demais de tocar

Exhibiendo 10 de 27 comentarios Mostrar más ver todo »
Composición: David Ruis
Ese no és el compositor? Avisenos.
Contribución: CADU ZIC@ Correcciónes: wesley.araujo.7370 , Nataniel e mais 16 »
  1. Sweet Child O' Mine - Guns N' Roses mantiene 3.210 exhibiciones
  2. Wonderwall - Oasis mantiene 2.302 exhibiciones
  3. All Of Me - John Legend mantiene 2.142 exhibiciones
  4. Nothing Else Matters - Metallica mantiene 1.920 exhibiciones
  5. Stairway To Heaven - Led Zeppelin mantiene 1.598 exhibiciones
  6. When I Was Your Man - Bruno Mars mantiene 1.508 exhibiciones
  7. I'm Yours - Jason Mraz mantiene 1.430 exhibiciones
  8. The Scientist - Coldplay mantiene 1.418 exhibiciones
  9. More Than Words - Extreme mantiene 1.417 exhibiciones
  10. Hey Jude - The Beatles mantiene 1.331 exhibiciones
  1. The Beatles- mantiene 22.777 exhibiciones
  2. Guns N' Roses- mantiene 7.937 exhibiciones
  3. Metallica- mantiene 7.606 exhibiciones
  4. Coldplay- mantiene 5.407 exhibiciones
  5. Nirvana- mantiene 5.159 exhibiciones
  6. Oasis- mantiene 4.968 exhibiciones
  7. Red Hot Chili Peppers- mantiene 4.958 exhibiciones
  8. One Direction- mantiene 4.828 exhibiciones
  9. Bruno Mars- mantiene 4.670 exhibiciones
  10. Ed Sheeran- mantiene 4.101 exhibiciones
Exhibir acordes »

Acordes y tabs

Aprenda

Studio Sol

©1996 - 2014 Cifra Club · el primero, mayor y más accedido del Brasil · 341 mil músicas · 6.3 millones de personas registradas

publicidad
cerrar