O Tempo Não Apaga

Victor e Leo

 Victor e Leo
Tono: C
		

   Am                  C                 G                    Am
E|-----------------|------------------|--------------------|--------------------|
B|--------6-5------|--------6-5-------|--------3-----------|--------------------|
G|-----5-------5---|-----5-------5----|------4---4---------|--------------------|
D|--7--------------|--5---------------|-5---------5--5/7---|--------------------|



   Am                  C                 G                    Am
E|-----------------|------------------|--------------------|--------------------|
B|--------6-5------|--------6-5-------|--------3-----------|--------------------|
G|-----5-------5---|-----5-------5----|------4---4---------|--------------------|
D|--7--------------|--5---------------|-5---------0-0h2----|--------------------|


 C                G
Olhando o céu lembrei
      Am		     F
Que tudo que vivemos não passou
	      C
E pra dizer mais
     G
Pensei
     Dm          	     F
Que temos outra chance de fazer
 G	              F
Nosso sol brilhar em mim
      G
Em você

C			G
O tempo não apaga não desfaz
Am				F
O beijo que eu desejo sempre mais
 C			     G
Não posso se esquecer seu olhar no meu
Am			     F
Eu sei que nosso amor ainda não

morreu


    C            G               Am            F
E|-------0----|--------------|---------0----|--1-0------|
B|--1--1---1--|----0--0-3-0--|----1--1---1--|------3-1--|
G|------------|--0-----------|--2-----------|-----------|


Último Refrão: Aumenta um Tom

D              		  A
O tempo não apaga não desfaz
Bm				G
O beijo que eu desejo sempre mais
 D				       A
Não posso se esquecer seu olhar no meu
Bm				G
Eu sei que nosso amor ainda não
   D
Morreu.
Texto Columnas
Alterar tom ½ tono ½ tono
sintonización acordes esconder tabs más »
36 exhibiciónes

Comentarios (7)

  • Vinícius Vinícius: Publicado en 14/04/2014 - 20:58

    Fofão faz vídeo aula dessa musica :)

  • Iago Iago: Publicado en 03/04/2014 10:27

    video aula

  • Nailton Nailton: Publicado en 14/03/2014 16:23

    qual é o ritmo?

    • Nathalia Nathalia: Publicado en 20/03/2014 17:49

      boa pergunta kkk

  • lolynhabatista lolynhabatista: Publicado en 07/11/2013 17:09

    "Não posso se esquecer" Assassinaram a língua,não é assim na música original!

  • wellington_rosa wellington_rosa: Publicado en 05/10/2013 12:48

    Solo ta mt bom, parabéns

Composición: Victor Chaves/ Leo Chaves
Ese no és el compositor? Avisenos.
Contribución: kbrayan Correcciónes: wallace_menon e mais 2 »
  1. Sweet Child O' Mine - Guns N' Roses mantiene 2.925 exhibiciones
  2. Wonderwall - Oasis mantiene 2.186 exhibiciones
  3. Hey Jude - The Beatles mantiene 1.958 exhibiciones
  4. Nothing Else Matters - Metallica mantiene 1.804 exhibiciones
  5. Wake Me Up - Avicii mantiene 1.773 exhibiciones
  6. Stairway To Heaven - Led Zeppelin mantiene 1.661 exhibiciones
  7. When I Was Your Man - Bruno Mars mantiene 1.589 exhibiciones
  8. More Than Words - Extreme mantiene 1.450 exhibiciones
  9. Get Lucky - Daft Punk mantiene 1.367 exhibiciones
  10. Don't Let Me Down - The Beatles mantiene 1.360 exhibiciones
  1. The Beatles- mantiene 25.078 exhibiciones
  2. Metallica- mantiene 8.619 exhibiciones
  3. Guns N' Roses- mantiene 7.929 exhibiciones
  4. Nirvana- mantiene 6.626 exhibiciones
  5. Red Hot Chili Peppers- mantiene 5.725 exhibiciones
  6. One Direction- mantiene 5.420 exhibiciones
  7. Bruno Mars- mantiene 4.865 exhibiciones
  8. Coldplay- mantiene 4.745 exhibiciones
  9. Oasis- mantiene 4.554 exhibiciones
  10. Green Day- mantiene 3.603 exhibiciones
Exhibir acordes »

Acordes y tabs

Aprenda

Studio Sol

©1996 - 2014 Cifra Club · el primero, mayor y más accedido del Brasil · 329 mil músicas · 5.9 millones de personas registradas

publicidad
cerrar