Senhorita

Vicente Nery

 Vicente Nery Compositor: Zé Geraldo
Tono: G
		

E|--2---3--5--7-7-7-7---8-7-5-3-2-3-2--2-3-5----------|
B|----3-----------------------------------------------|
G|----------------------------------------------------|
D|----------------------------------------------------|
A|----------------------------------------------------|
E|----------------------------------------------------|



E|--2---3--5--7-7-7-7---8-7-5-3-2-3-2--2-3-5--3-5-3-2-|
B|----3-----------------------------------------------|
G|----------------------------------------------------|
D|----------------------------------------------------|
A|----------------------------------------------------|
E|----------------------------------------------------|


Solo 2x: D  C  G

D                    G                     D
Minha meiga senhorita eu nunca pude lhe dizer
G                      D
Você jamais me perguntou
C          G                 D
de onde eu venho e pra onde vou
           A            G            D
De onde eu venho não importa, já passou
         A         G            D     C G D
O que importa é saber pra onde vou

                    G                       D
Minha meiga senhorita o que eu tenho é quase nada
 G                     D
Mas tenho o sol como amigo
C            G                  D
Traz o que é seu e vem morar comigo
       A                G                   D
Uma palhoça no canto da serra será nosso abrigo
              A           G                   D
Traz o que é seu e vem correndo, vem morar comigo

A                              G
Aqui é pequeno mas dá pra nós dois
                                    D
E se for preciso a gente aumenta depois
A                                  G
Tem um violão que é pra noites de lua
                                    D
Tem uma varanda que é minha e que é sua
             A               G
Vem morar comigo meiga senhorita
             D    A      G
Vem morar comigo Oh Oh Oh...
             D
Vem morar comigo

58 exhibiciónes

Comentarios 1

Composición: Zé Geraldo
Ese no és el compositor? Avisenos.
Contribución: Luciano Knight Correcciónes: bruno_hyago »
Exhibir acordes »
publicidad
cerrar