Moment Of Surrender

U2

 U2
Tono: C
		
INTRO: C
      (Am Am F F C G E E D D)(2X)

(Am Am F F C G E E D D)
I tied myself with wire
To let the horses run free
Playing with the fire until the fire played with me
The stone was semi-precious
We were barely conscious
Two souls too smart to be in the realm of certainty
Even on our wedding day

We set ourselves on fire
Oh God, do not deny her
It´s not if I believe in love
But if love believes in me
Oh, believe in me

        F            C
At the moment of surrender
    F            C
I floded to my knees
   Am                 G
I did not notice the passers-by
          F
And they did not notice me

(Am Am F F C G E E D D)
I´ve been in every black hole
At the altar of the dark star
My body´s now a begging bowl
That´s begging to get back, begging to get back
To my heart

                    Am
To the rhythm of my soul
                  F
To the rhythm of my unconsciousness
                    C   G
To the rhythm that yearns
                E
To be released form control

       F               C
I was punching in the numbers
       F       C
at the ATM machine
         Am            G
I could see in the reflection
   F
A face staring back at me
        F            C
At the moment of surrender
    F                   C
Of vision over visibility
   Am                 G
I did not notice the passers-bay
          F
And they did not notice me

INTRO (Am Am F F C G E E D D)
SOLO  (Am Am F F C G E E D D)

        F              C
I was speeding on the subway
              F               C
Through the stations of the cross
      Am                G
Every eye looking every other way
          F
Counting down ´til the pain would stop
        F            C
At the moment of surrender
    F                   C
Of vision over visibility
   Am                 G
I did not notice the passers-bay
          F
And they did not notice me

VOCALIZAÇÕES: Am F C G E E D


E|-----------------------------------------------------------------|
A|-----------------------------------------------------------------|
D|-----------------------------------------------------------------|
G|----9---9---9----9---9---9---10---10--10---10---10--10---9--9----|
B|--10--10--10---10--10--10--10---10--10---10---10--10----8--8--8--|
E|-8---8--------8---8-------8----8--------8----8---------8--8------|



E|--------------------------------------------------------------------------|
A|-----------------------------------------------------------------------0--|
D|---------------------------------------------0-0--------------0-0------2--|
G|---7--7-----9--9--9---9---9--9----2--2--2--2-0-0---2--2--2--2-0-0--2---2--|
B|--8--8--8--9--9--9---9---9--9----3--3--3--3--1-1--3--3--3--3--1-1--3---1--|
E|-7--7-----7--7------7---7-------0--0--0--0---0-0-0--0--0--0---0-0--0---0--|
271 exhibiciónes

Comentarios 1

  • cabanelas cabanelas: Publicado en 13/07/2012 11:24

    Podia por o vídeo aula, por favor...?

Composición: Amanda Overmyer / Brian Eno / Francesco Bianconi / Hermes Aquino / Jason Perry
Ese no és el compositor? Avisenos.
Contribución: The Edge Correcciónes: educaranba »
Exhibir acordes »
publicidad
cerrar