Tono: E
		
Intro: 


E|-------------------------------------4----------------|
B|--5------5-------7------7-------5--7---5---2------2---|
G|-----2-----2-------4-------4------------------2-----2-|
D|------2------2-------4-------4------------------2-----|
A|--4------4-------6------6------------------0----------|
E|------------------------------------------------------|



E|-------------------------------------4-7---0-----0----|
B|--5------5-------7------7-------5--7---------2----2---|
G|-----2-----2-------4-------4------------------2-------|
D|------2------2-------4-------4------------------------|
A|--4------4-------6------6------------------0----------|
E|------------------------------------------------------|


A/C# B/D#           E    A9
 Di zem que eu não sou capaz
A/C# B/D#           E    A9
 Di zem que eu não vou vencer
A/C# B/D#  E    A9
Não  é na minha força
A/C# B/D#       E     A9
Mas sim em nome do meu Deus

D           C             D     E
O poder da unção que está sobre mim
            D       D
Me adestra pras batalhas

G      G       G            G
Não importa o que pensam de mim
G        G         G         G
Vou deixar pra trás minhas limitações
D#m     G#m                  A    F#m
Pois o Senhor não vê como o homem vê
                 A       B
Ele está atento  ao coração

E     B       A       B
Ele exalta o puro de coração
E       B            A          B
E se revela aos que buscam Sua face
D#m    G#m        A          F#m
Fui atraído pelo poder desse amor
                   B
Tudo posso com meu Deus

Comentarios 1

  • garrada garrada: Publicado en 25/02/2011 16:06

    ola pessoal meu nome é joelma moro no ES ,serra egosto muuuuuuuuuito de ouvir vcs cantando bjss

Composición: Ronald Fonseca, Deco Rodrigues e Luiz Arcanjo
Ese no és el compositor? Avisenos.
Contribución: Alessandro Correcciónes: Samuel , jefferson alves (IMW do Viegas) e mais 14 »
Exhibir acordes »
publicidad
cerrar