Rosanna

Toto

 Toto
Tono: C
		
Intro:

(Riff 1)

(Guitarra 1)

E|-----------------------------------------
B|-----------------------------------------
G|-2h4--4-4-5--5--4--2--0------------------
D|-0----0-0-0--0--0--0--0------------------
A|-----------------------------------------
E|-3----3---3--------3---------------------


(Guitarra 2)

E|-----------------------------------------
B|-----------------------------------------
G|-----------------------------------------
D|--------------5-5---5--------------------
A|-----------------------------------------
E|-3—3---3-3-3------3----------------------


(Guitarra 2 - variação)

E|-----------------------------------------
B|-----------------------------------------
G|-----------------------------------------
D|------5-5-----5-5------------------------
A|-----------------------------------------
E|-3—-3-----3-------3----------------------



Primeira Parte:

All I wanna do when I wake up in the morning

Is see you eyes

Rosanna, Rosanna
F5
   I never thought that a girl like you
            E5
Could ever care for me, Rosanna
C5  F5
    All I wanna do in the middle of the evening

Is hold you tight

Rosanna, Rosanna
F5
   I didn't know you were looking for more
     E5
Than I could ever be
(Guitarra 1)

E|-----------------------------------------
B|-----------------------------------------
G|-2h4--4-4-5--5--4--2--0------------------
D|-0----0-0-0--0--0--0--0------------------
A|-----------------------------------------
E|-3----3---3--------3---------------------


                            F  Em7
E|--------------------------1--3-----------
B|--------------------------1--3-----------
G|-2h4--4-4-5--5--4--2--0---2--0-----------
D|-0----0-0-0--0--0--0--0---3--2-----------
A|--------------------------3--2-----------
E|-3----3---3--------3------1--0-----------



E|-----------------------------------------
B|-----------------------------------------
G|-2h4--4-4-5--5--4--2--0------------------
D|-0----0-0-0--0--0--0--0------------------
A|-----------------------------------------
E|-3----3---3--------3---------------------


                      C
E|--------------------0-0------------------
B|--------------------0-0------------------
G|-2h4--4-4-5--5--4---1-1------------------
D|-0----0-0-0--0--0---2-2------------------
A|--------------------3-3------------------
E|-3----3---3------------------------------


   F       D#5(9) Dm
E|-1---1---0------5------------------------
B|-1---1---0------6------------------------
G|-2---2---8------7------------------------
D|-3---3---8------7------------------------
A|-3---3---6------5------------------------
E|-1---1-----------------------------------


(Guitarra 2)

E|-----------------------------------------
B|-----------------------------------------
G|-----------------------------------------
D|------------------5-5---5----------------
A|-----------------------------------------
E|-3—--3-3-3---3-3------3------------------


   F5       Em7
E|-----------------------------------------
B|----------3------------------------------
G|----------0------------------------------
D|-3---0h2--2------------------------------
A|-3---------------------------------------
E|-1---------------------------------------



E|-----------------------------------------
B|-----------------------------------------
G|-----------------------------------------
D|------------------5-5---5----------------
A|-----------------------------------------
E|-3—--3-3-3---3-3------3------------------


                    C5
E|-----------------------------------------
B|-----------------------------------------
G|-----------------------------------------
D|------------------5--5-------------------
A|------------------3--3-------------------
E|-3—-3-3-3---3--3-------------------------


   F5                          D#5
E|-----------------------------------------
B|-----------------------------4-----------
G|-----------------------------3-----------
D|-3----------------3-3---3----1-----------
A|-3---------------------------------------
E|-1--1-1-1-1---1-1-----1---1--------------



E|-----------------------------------------
B|-----------------------------------------
G|----------------7-7---7------------------
D|-----------------------------------------
A|-5--5-5-5--5--5-----5--------------------
E|-----------------------------------------



Segunda Parte:
 Gm                         F/A   A#          F
Not quite a year since she went away, Rosanna
Gm                       F/A     A# F
   Now she's gone and I have to say
(Guitarra 1)

   Gm  F/G# A#        A#
E|-3--------5------------------------------
B|-3---3----5---8-8---5--5--5--------------
G|-3---5----6---8-8---6--6--6--------------
D|-5---3----8---8-8---8--7--7--------------
A|-5--------8---------8--------------------
E|-3---5----6---6-6---6--------------------


(Guitarra 2)

E|-----------------------------------------
B|-3---3---3---3h4--4--3-------------------
G|-3---5---3---3----3--3--5--5h7-5--3------
D|-5---3---3---3h5--5--3--3-----------5----
A|-----------------------------------------
E|-3---5---6-------------------------------



E|-----------------------------------------
B|-3---3---3---3h4--4--3-------------------
G|-3---5---3---3----3--3--5----------------
D|-5---3---3---3h5--5--3--3--------10h12---
A|---------------------------10h12---------
E|-3---5---6-------------------------------



E|--------------------13-------------------
B|--------------------13-------------------
G|-12-12h13p12-10--------------------------
D|-12-------------12-----------------------
A|-----------------------------------------
E|-----------------------------------------



Refrão:
         Cm7         F5
Meet you all the way,
         Cm7                 F5
Meet you all the way,Rosanna
         Cm7         F5
Meet you all the way,
         Cm7                 F5
Meet you all the way,Rosanna
Refrão:

   Cm7                          F5
E|-----------------------------------------
B|-3--4-4--x--3--4-4--x-4-4-3-3------------
G|-3--3-3--x--3--3-3--x-3-3-3-3------------
D|-5--5-5--x--3--5-5--x-3-3-3-3-3-3--------
A|-3-------x----------x---------3-3--------
E|---------x----------x---------1-1--------



Primeira Parte - Com Variação:

I can see your face

still shining through the window On the otherside

Rosanna, Rosanna
F5
   I didn't know that a girl like you
               Em7                 C5
Could make me feel so sad, Rosanna
F5
All I wanna tell you

Is now you'll never ever have to compromise

Rosanna, Rosanna
D#5(9)
       I never thought that losing you
            Dm7
Could ever hurt so bad

Segunda Parte:
 Gm                         F/A   A#          F
Not quite a year since she went away, Rosanna
Gm                       F/A     A# F
   Now she's gone and I have to say

(Refrão)

( F5  Em7 )


Solo: F  D#5(9)  Dm
E|---------------------------------------------------
B|-------------------------6-----8-8--6-8b10r-b10----
G|---------------------6/7---6/7---------------------
D|-3-3-3-3-3/5--5/7-7--------------------------------
A|---------------------------------------------------
E|---------------------------------------------------



E|-8-------------------------------------------------
B|---8b10r8---8---6-----------------8/9h10-13--------
G|----------7---7----------------10------------------
D|-------------------------10h12---------------------
A|-------------------11h12---------------------------
E|---------------------------------------------------



E|----------9/10-13p10--13b15-15-13-13-15b-15-13-13--
B|-10h11h13------------------------------------------
G|---------------------------------------------------
D|---------------------------------------------------
A|---------------------------------------------------
E|---------------------------------------------------



E|-13-15-13-15-15b17-18-15b17p15-13~-----------------
B|---------------------------------------------------
G|---------------------------------------------------
D|---------------------------------------------------
A|---------------------------------------------------
E|---------------------------------------------------



(Segunda parte)

(Refrão 2x)

(Solo Improvisado)
Guitarra 2 - Base Solo Improvisado:

E|---------------------------------------------------
B|-3--5--7--5--3--5----------------------------------
G|-3--5--7--5--3--5----------------------------------
D|-3--5--7--5--3--5----------------------------------
A|---------------------------------------------------
E|-3-------------------------------------------------

Comentarios 8

  • gabitereza gabitereza: Publicado en 13/12/2011 16:23

    nem sabia que essa banda existia!!!! rsrsrs

  • tandercats tandercats: Publicado en 06/12/2011 14:26

    meu muito bom
    adoro a banda toto

  • GabrieL GabrieL: Publicado en 06/12/2011 13:21

    meu deus ,esse cara é um monstro o.0

  • Thiago Thiago: Publicado en 06/12/2011 11:58

    Otima música....HOLD THE LINE tambem do TOTO seria uma boa.

  • teuzimhammett teuzimhammett: Publicado en 05/12/2011 19:46

    ainda bem que ele não ensina o solo improvisado dele sauhashu

  • marcelo marcelo: Publicado en 05/12/2011 15:55

    AAAAAAAAAAAAAAAAAAA EU ACHAVA QUE NAO ESTARIA VIVO PARA VER ESSA MUSICA CARA MUUITO BOOOOOOOOOOOOOOOOM, ADOREI MELHOR DO CIFRA MERECE ...

  • kbcao kbcao: Publicado en 05/12/2011 15:53

    É tranquila a música. Algumas partes que me complico. Mas logo pego ela... solos improvisados nem chegam perto da do Tarcio mas ta legal

  • eddyecobain23 eddyecobain23: Publicado en 05/12/2011 12:48

    FIRST! Ô MUSICA DIFICIL!!

Composición: Boca / David Paich / Davor Vulama
Ese no és el compositor? Avisenos.
Contribución: válence Correcciónes: tarsiuslima e mais 1 »
Exhibir acordes »
publicidad
cerrar