Olha Pra Mim

Toque No Altar

 Toque No Altar Compositor: Luiz Arcanjo e Davi Sacer
Tono: G
		

E|---3-2-----------3-2-----3/5--3-3-5/7--7--7/8-----3/5---3----------------------------
B|--------1-3------------1-------------------------------------------------------------
G|-------------------------------------------------------------------------------------
D|-------------------------------------------------------------------------------------
A|-------------------------------------------------------------------------------------
E|-------------------------------------------------------------------------------------



E|---3-2-------------------3-2-----3/5--3-3-5/7--7--7/8-----3/5---3--------------------
B|--------1-1-1-3-3/5-----------1------------------------------------------------------
G|-------------------------------------------------------------------------------------
D|-------------------------------------------------------------------------------------
A|-------------------------------------------------------------------------------------
E|-------------------------------------------------------------------------------------


Intro 2x: Am7  G/B  C  Cm/D#  D4

             Am7              G/B
Eu me humilharei teu nome gritarei.
                  C7M                 C/D
Como criança eu serei, mas olha pra mim.
               Am7                  G/B
Tuas veste tocarei, na figueira subirei.
                   C7M                  C/D
Aos teus pés eu chorarei, mas olha pra mim.

         Am7      Bm
Olha pra mim, Senhor.
         Am7             Bm         Em7
Olha pra mim, preciso do teu olhar
          Am7             Bm
Olha pra mim, pois eu preciso
                          C  C/D
Pois eu preciso do teu olhar

                        Am7
Eu farei o que for preciso
         Bm7
Para te ver
                           C7M
Pois não posso deixar que sigas
    Em/G  D/F# C/E D/F#  Bm      Em7
 sem   me   per-ce|--ber
                     Am7
Não importa a multidão
                       Bm7
Só eu sei do que eu preciso
                       C7M
E eu preciso do teu olhar, do teu olhar.
    C/D
Do teu olhar

Comentarios 3

  • silvamusic silvamusic: Publicado en 02/04/2013 10:37

    muito legal essa musica

  • vinancio vinancio: Publicado en 23/11/2012 10:26

    musica mt linda =)

  • danilinhohh1 danilinhohh1: Publicado en 25/09/2012 06:35

    SHOWWWWWWWWWWWWWW !!!

Composición: Sabe quien és el compositor? Envíenos. Contribución: David-INVCatete Correcciónes: mestre do rock , luannascimento1 e mais 14 »
Exhibir acordes »
publicidad
cerrar