Tono: E
		

 A	E	B
E|--12-12---9--9--5-5---9--9--11-11--7-7---4-4---7-7---9--9---5-5---|
B|--14-14--10-10--7-7--10-10--12-12--9-9---5-5---9-9--10-10---7-7---|
G|------------------------------------------------------------------|
D|------------------------------------------------------------------|
A|-0------0-----0-----0------0------0----0-----0-----0-----0--------|
E|------------------------------------------------------------------|


E	E7	B7	E
1ª Vez    	 2ª Vez

E|--2-2--5-5-|--7-7---4-4---5-5---7-7--||--7-7-7--5/7-7-7--5--4--0-|
B|--4-4--7-7-|--9-9---5-5---7-7---9-9--||--7-7-7-----------------0-|
G|-----------|------------------------:||--7-7-7--5/7-7-7--5--3--0-|
D|-----------|-------------------------||--7-7-7-----------------0-|
A|-0---0-----|-0----0------0----0------||--7-7-7-----------------0-|
E|-----------|-------------------------||--------------------------|


E
Se a minha vista alcançasse onde o pensamento vai
B7
Talvez não sofresse tanto por não ver Minas Gerais

Nunca mais minha araponga, escutei cantar nas matas
E
Pra mineira que eu adoro eu nunca mais fiz serenata Solo meio:

A	E
Quero meu pai e mãe abraçar, ouvir o sabiá cantador
B7	E
Na campina o perfume da flor, lá da serra ver o sol raiar
E7	A	E
Quero ver o meu céu estrelado e o clarão que a lua faz
B7
Ver meu amor que felicidade, quanta saudade
E	B7	E
Oi Minas Gerais,	oi Minas Gerais 

(Intro)

E
Vivendo aqui tão distante, a saudade é muito mais
B7
Você sofre e eu também sofro, padecemos dois iguais

Longe de ti meu benzinho, estou sempre a padecer
E
Saudade está me matando, eu sou capaz de enlouquecer
23 exhibiciónes

Comentarios 1

  • mateus mateus: Publicado en 05/12/2014 17:26

    Se a letra nao estivesse errada...

Composición: Tião Careiro / Lourival dos Santos
Ese no és el compositor? Avisenos.
Contribución: Valter
Consigo tocarSin embargo, para tocar esta canción. ¡Sé el primero!
    Aún no puedo reproducir
    Exhibir acordes »
    publicidad
    cerrar