The White Stripes

Seven Nation Army

20.197 reproducciones
Tono: G
Riff 1:


E|-------------------------------------------------|
B|-------------------------------------------------|
G|-------------------------------------------------|
D|-------------------------------------------------|
A|----2--2-5-2-0-------2--2-5-2-0-2-0--------------|
E|---------------3-2-------------------3-2---------|


Riff 2:


E|---------------------------------------------|
B|---------------------------------------------|
G|---------------------------------------------|
D|---------------------------------------------|
A|----5-5-5-5-5-5-5-5-7-7-7-7-7-7-7-7----------|
E|----3-3-3-3-3-3-3-3-5-5-5-5-5-5-5-5----------|


Riff 3:


E|-----------------------------------------------------------|
B|-----------------------------------------------------------|
G|---9--9-12-9-7-5-4~----9--9-12-9-7-5\9/5-4-----------------|
D|---9--9-12-9-7-5-4~----9--9-12-9-7-5\9/5-4-----------------|
A|---7--7-10-7-5-3-2~----7--7-10-7-5-3\7/3-2-----------------|
E|-----------------------------------------------------------|


Solo:



E|--12--12/14--12--12--15b--14------12--12--15--17--15--15--15/17--15--14------------|
B|-----------------------------------------------------------------------------------|
G|-----------------------------------------------------------------------------------|
D|-----------------------------------------------------------------------------------|
A|-----------------------------------------------------------------------------------|
E|-----------------------------------------------------------------------------------|


E|--12--12/14--12--12--15b--15-|--12--12/14--12--12/14--12---------33333333-55555555-|
B|------------------------------|---------------------------13--12-------------------|
G|------------------------------|----------------------------------------------------|
D|------------------------------|----------------------------------------------------|
A|------------------------------|----------------------------------------------------|
E|------------------------------|----------------------------------------------------|


E|--------------|
B|--------------|
G|------9~~~~---|
D|------9~~~~---|
A|--0---7~~~~---|
E|--------------|


(Riff 1 - 4x)

          (Riff 1)
I'm gonna fight em' off.
               (Riff 1)
A seven nation army couldn't hold me back.
              (Riff 1)
They're gonna rip it off.
             (Riff 1)
Takin' their time right behind my back.
        (Riff 1)
And i'm talkin to myself at night, because i cant forget.
(Riff 1)                                          (Riff 1)
Back and forth through my mind behind a cigarette
      (Riff 2)
And a message comin' from my eyes, says leave it alone.

(Riff 3 - 4x)

(Riff 2 - 1x)

(Riff 1 - 4x)

           (Riff 1)
Dont wanna hear about it.
              (Riff 1)
Every single ones got a story to tell.
         (Riff 1)
Everyone knows about it.
                  (Riff 1)
From the queen of england to the hounds of hell.
         (Riff 1)
And if i catch you comin back my way, i'm gonna serve it to you.
     (Riff 1)                                              (Riff 1)
And that ain't what you want to hear, but thats what i'll do.
      (Riff 2)
And a feelin' comin' from my bones, says find a home.

Solo:



E|--12--12/14--12--12--15b--14------12--12--15--17--15--15--15/17--15--14------------|
B|-----------------------------------------------------------------------------------|
G|-----------------------------------------------------------------------------------|
D|-----------------------------------------------------------------------------------|
A|-----------------------------------------------------------------------------------|
E|-----------------------------------------------------------------------------------|


E|--12--12/14--12--12--15b--15-|--12--12/14--12--12/14--12---------33333333-55555555-|
B|------------------------------|---------------------------13--12-------------------|
G|------------------------------|----------------------------------------------------|
D|------------------------------|----------------------------------------------------|
A|------------------------------|----------------------------------------------------|
E|------------------------------|----------------------------------------------------|


(Riff 1 - 4x)

            (Riff 1)
Im goin' to witchitaw.
              (Riff 1)
Far from this opera forever more.
         (Riff 1)
Im gonna work the straw (?).
               (Riff 1)
Make the sweat drip out of every pore.
        (Riff 1)
And i'm bleedin' and i'm bleedin' and im bleedin' right before my lord.
        (Riff 1)                                              (Riff 1)
All the words are gonna bleed from me, and i will sing no more.
         (Riff 2)
And the stains comin from my blood, tell me go back home.


E|--------------|
B|--------------|
G|------9~~~~---|
D|------9~~~~---|
A|--0---7~~~~---|
E|--------------|
    Composición: Jack White IIIColaboración y revision:
    • Fernando
    • ronalorlando.cuevaayay
    • filipe.toyoshima
    • ariel.7198
    • +18

    Comentarios 72

    • luis luis: Publicado en 23/04/2015 15:07

      Riff 1:
      -
      -------10----------------------10
      11-11---11-9---------11-11---11-9----9
      ----------------12-11------------------12--12--11
      -
      -

    • Derek Derek: Publicado en 21/01/2015 14:45

      cifraclub decepciona outra vez com parte faltando e solo zoado pakas. (Eu sei que usa slide)

    • Renato Renato: Publicado en 19/12/2014 15:55

      Só eu percebi que tá faltando um pedaço do solo??

    • Arthur Arthur: Publicado en 27/09/2014 21:11

      pra quem acha q n ta saindo direito é porque o jack white us o slide nessa musica

    • Mikael Mikael: Publicado en 30/08/2014 21:24

      riff marcante!

    • lucas.bail.9 lucas.bail.9: Publicado en 03/05/2014 22:43

      boa

    • Matheus Matheus: Publicado en 15/04/2014 19:59

      melhor música para um iniciante

    • ryanyasmin.coradi ryanyasmin.coradi: Publicado en 27/01/2014 18:46

      Ei ees clipe feito pelos iluminatis e serio sigam a deus nao e so porque e rock que tem que ser satanico nao nao se deichem levar sigam a de

      • Bruno Bruno: Publicado en 04/02/2014 16:24

        aff mano... coitado de vc, q acredita nisso

      • luiznds luiznds: Publicado en 28/03/2014 20:43

        Cara,serio dói ler isso,como cristão posso te garantir que isso ai é coisa da tua cabeça,se for pra se expressar faça direito.

    Exhibiendo 10 de 72 comentarios Mostrar más ver todo »
    0:00 / 0:00

    Capitulos

      1 versão de bateríareproduccionescontribuición y correción
      3 versões de armónicareproduccionescontribuición y correción
      play/pausefechar subir/bajar velocidad
      6ª cuerda E5ª cuerda A4ª cuerda D3ª cuerda G2ª cuerda B1ª cuerda E
        acordes
        publicidad
        cerrar
        ok