Seven Nation Army

The White Stripes

 The White Stripes
Tono: G
		
Riff 1:


E|-------------------------------------------------|
B|-------------------------------------------------|
G|-------------------------------------------------|
D|-------------------------------------------------|
A|----7--7-10-7-5-3-5-3-2--------------------------|
E|-------------------------------------------------|


Riff 2:


E|---------------------------------------------|
B|---------------------------------------------|
G|---------------------------------------------|
D|---------------------------------------------|
A|----5-5-5-5-5-5-5-5-7-7-7-7-7-7-7-7----------|
E|----3-3-3-3-3-3-3-3-5-5-5-5-5-5-5-5----------|


Riff 3:


E|-----------------------------------------------------------|
B|-----------------------------------------------------------|
G|---9--9-12-9-7-5-4~----9--9-12-9-7-5\9/5-4-----------------|
D|---9--9-12-9-7-5-4~----9--9-12-9-7-5\9/5-4-----------------|
A|---7--7-10-7-5-3-2~----7--7-10-7-5-3\7/3-2-----------------|
E|-----------------------------------------------------------|


Solo:



E|--12--12/14--12--12--15b--14------12--12--15--17--15--15--15/17--15--14------------|
B|-----------------------------------------------------------------------------------|
G|-----------------------------------------------------------------------------------|
D|-----------------------------------------------------------------------------------|
A|-----------------------------------------------------------------------------------|
E|-----------------------------------------------------------------------------------|




E|--12--12/14--12--12--15b--15-|--12--12/14--12--12/14--12---------33333333-55555555-|
B|------------------------------|---------------------------13--12-------------------|
G|------------------------------|----------------------------------------------------|
D|------------------------------|----------------------------------------------------|
A|------------------------------|----------------------------------------------------|
E|------------------------------|----------------------------------------------------|



E|--------------|
B|--------------|
G|------9~~~~---|
D|------9~~~~---|
A|--0---7~~~~---|
E|--------------|


(Riff 1 - 4x)

          (Riff 1)
I'm gonna fight em' off.
               (Riff 1)
A seven nation army couldn't hold me back.
              (Riff 1)
They're gonna rip it off.
             (Riff 1)
Takin' their time right behind my back.
        (Riff 1)
And i'm talkin to myself at night, because i cant forget.
(Riff 1)                                          (Riff 1)
Back and forth through my mind behind a cigarette
      (Riff 2)
And a message comin' from my eyes, says leave it alone.

(Riff 3 - 4x)

(Riff 2 - 1x)

(Riff 1 - 4x)

           (Riff 1)
Dont wanna hear about it.
              (Riff 1)
Every single ones got a story to tell.
         (Riff 1)
Everyone knows about it.
                  (Riff 1)
From the queen of england to the hounds of hell.
         (Riff 1)
And if i catch you comin back my way, i'm gonna serve it to you.
     (Riff 1)                                              (Riff 1)
And that ain't what you want to hear, but thats what i'll do.
      (Riff 2)
And a feelin' comin' from my bones, says find a home.

Solo:



E|--12--12/14--12--12--15b--14------12--12--15--17--15--15--15/17--15--14------------|
B|-----------------------------------------------------------------------------------|
G|-----------------------------------------------------------------------------------|
D|-----------------------------------------------------------------------------------|
A|-----------------------------------------------------------------------------------|
E|-----------------------------------------------------------------------------------|




E|--12--12/14--12--12--15b--15-|--12--12/14--12--12/14--12---------33333333-55555555-|
B|------------------------------|---------------------------13--12-------------------|
G|------------------------------|----------------------------------------------------|
D|------------------------------|----------------------------------------------------|
A|------------------------------|----------------------------------------------------|
E|------------------------------|----------------------------------------------------|


(Riff 1 - 4x)

            (Riff 1)
Im goin' to witchitaw.
              (Riff 1)
Far from this opera forever more.
         (Riff 1)
Im gonna work the straw (?).
               (Riff 1)
Make the sweat drip out of every pore.
        (Riff 1)
And i'm bleedin' and i'm bleedin' and im bleedin' right before my lord.
        (Riff 1)                                              (Riff 1)
All the words are gonna bleed from me, and i will sing no more.
         (Riff 2)
And the stains comin from my blood, tell me go back home.


E|--------------|
B|--------------|
G|------9~~~~---|
D|------9~~~~---|
A|--0---7~~~~---|
E|--------------|
Texto Columnas
Alterar tom ½ tono ½ tono
sintonización acordes esconder tabs más »

Comentarios 66

  • Mikael Mikael: Publicado en 30/08/2014 21:24

    riff marcante!

  • lucas.bail.9 lucas.bail.9: Publicado en 03/05/2014 22:43

    boa

  • Matheus Matheus: Publicado en 15/04/2014 19:59

    melhor música para um iniciante

  • ryanyasmin.coradi ryanyasmin.coradi: Publicado en 27/01/2014 18:46

    Ei ees clipe feito pelos iluminatis e serio sigam a deus nao e so porque e rock que tem que ser satanico nao nao se deichem levar sigam a de

    • Bruno Bruno: Publicado en 04/02/2014 16:24

      aff mano... coitado de vc, q acredita nisso

    • luiznds luiznds: Publicado en 28/03/2014 20:43

      Cara,serio dói ler isso,como cristão posso te garantir que isso ai é coisa da tua cabeça,se for pra se expressar faça direito.

    • William William : Publicado en 21/04/2014 00:08

      Comentário removido

    • ka1927 ka1927: Publicado en 17/06/2014 11:49

      eu não entendi o que vc quis dizer com o seu comentário, vc pode explicar melhor?

  • Allison Allison: Publicado en 17/08/2013 20:45

    O solo esta certo ?

    • Renato Renato: Publicado en 18/02/2014 21:08

      ta sim

Exhibiendo 10 de 66 comentarios Mostrar más ver todo »
Composición: Bill Napier
Ese no és el compositor? Avisenos.
Contribución: Mathaus Correcciónes: Malen , filipe.toyoshima e mais 20 »
  1. Sweet Child O' Mine - Guns N' Roses mantiene 3.049 exhibiciones
  2. Wonderwall - Oasis mantiene 2.220 exhibiciones
  3. All Of Me - John Legend mantiene 2.204 exhibiciones
  4. Nothing Else Matters - Metallica mantiene 1.629 exhibiciones
  5. When I Was Your Man - Bruno Mars mantiene 1.573 exhibiciones
  6. Stairway To Heaven - Led Zeppelin mantiene 1.536 exhibiciones
  7. More Than Words - Extreme mantiene 1.460 exhibiciones
  8. Hey Jude - The Beatles mantiene 1.359 exhibiciones
  9. The Scientist - Coldplay mantiene 1.347 exhibiciones
  10. I'm Yours - Jason Mraz mantiene 1.105 exhibiciones
  1. The Beatles- mantiene 21.514 exhibiciones
  2. Guns N' Roses- mantiene 6.886 exhibiciones
  3. Metallica- mantiene 5.999 exhibiciones
  4. Soda Stereo- mantiene 5.362 exhibiciones
  5. Coldplay- mantiene 4.979 exhibiciones
  6. Red Hot Chili Peppers- mantiene 4.932 exhibiciones
  7. Bruno Mars- mantiene 4.869 exhibiciones
  8. Oasis- mantiene 4.521 exhibiciones
  9. Nirvana- mantiene 4.519 exhibiciones
  10. One Direction- mantiene 4.321 exhibiciones
Exhibir acordes »

Acordes y tabs

Aprenda

Studio Sol

©1996 - 2014 Cifra Club · el primero, mayor y más accedido del Brasil · 339 mil músicas · 6.3 millones de personas registradas

publicidad
cerrar