Reptilia

The Strokes

 The Strokes
Tono: C
		
Intro:
Guitarra 1:

E|-----------------|-----------------|-----------------|-----------------|
B|-----------------|-----------------|-----------------|-----------------|
G|-7-7---7---------|-7-7---7---------|-------------7---|-------------7---|
D|---------9---7---|---------9---7---|-6-6---6-9-------|-6-6---6-9-------|
A|-----------------|-----------------|-----------------|-----------------|
E|-----------------|-----------------|-----------------|-----------------| (4x)

Guitarra 2:

E|-----------------|-----------------|-----------------|-----------------|
B|-----------------|-----------------|-----------------|-----------------|
G|-7-7-7-7-7-7-7-7-|-7-7-7-7-7-7-7-7-|-9-9-9-9-9-9-9-9-|-9-9-9-9-9-9-9-9-|
D|-9-9-9-9-9-9-9-9-|-9-9-9-9-9-9-9-9-|-9-9-9-9-9-9-9-9-|-9-9-9-9-9-9-9-9-|
A|-9-9-9-9-9-9-9-9-|-9-9-9-9-9-9-9-9-|-7-7-7-7-7-7-7-7-|-7-7-7-7-7-7-7-7-|
E|-----------------|-----------------|-----------------|-----------------|


Verso 1 - 4x:
Guitarra 1:

E|-----------------|-----------------|-----------------|-----------------|
B|-----------------|-----------------|-----------------|-----------------|
G|-7-7---7---------|-7-7---7---------|-------------7---|-------------7---|
D|---------9---7---|---------9---7---|-6-6---6-9-------|-6-6---6-9-------|
A|-----------------|-----------------|-----------------|-----------------|
E|-----------------|-----------------|-----------------|-----------------|


(Verso 1 - 4x)
He seemed impressed by the way you came in.
"Tell us a story
I know you're not boring"

I was afraid that you would not insist.
"You sound so sleepy
just take this, now leave me"

Verso 2 - 4x:
Guitarra 1:

E|-----------------|-----------------|-----------------|-----------------|
B|-----------------|-----------------|-----------------|-----------------|
G|-7-7---7---------|-7-7---7---------|-------------7---|-------------7---|
D|---------9---7---|---------9---7---|-6-6---6-9-------|-6-6---6-9-------|
A|-----------------|-----------------|-----------------|-----------------|
E|-----------------|-----------------|-----------------|-----------------|

Guitarra 2:

E|-----------------|-----------------|-----------------|-----------------|
B|-----------------|-----------------|-----------------|-----------------|
G|-7-7-7-7-7-7-7-7-|-7-7-7-7-7-7-7-7-|-9-9-9-9-9-9-9-9-|-9-9-9-9-9-9-9-9-|
D|-9-9-9-9-9-9-9-9-|-9-9-9-9-9-9-9-9-|-9-9-9-9-9-9-9-9-|-9-9-9-9-9-9-9-9-|
A|-9-9-9-9-9-9-9-9-|-9-9-9-9-9-9-9-9-|-7-7-7-7-7-7-7-7-|-7-7-7-7-7-7-7-7-|
E|-----------------|-----------------|-----------------|-----------------|


(Verso 2 - 2x)
I said please don't slow me down
If I'm going too fast
You're in a strange part of our town...

Riff:
Guitarra 2:

E|-----------------------|-----------------------|---------------------|-----------------------|
B|-15-15---15-10-10---10-|-12-12---12-14-14---14-|-12-12--12-14-14--14-|-10-10---10-15-15------|
G|-x--x----x--x--x----x--|-x--x----x--x--x----x--|-x--x---x--x--x---x--|-x--x----x--x--x-------|
D|-x--x----x--x--x----x--|-x--x----x--x--x----x--|-x--x---x--x--x---x--|-x--x----x--x--x-------|
A|-14-14---14-9--9----9--|-10-10---10-12-12---12-|-10-10--10-12-12--12-|-9--9----9--14-14------|
E|-----------------------|-----------------------|---------------------|-----------------------|


Guitarra 2:

E|-----------------------|-----------------------|---------------------|-----------------------|
B|-15-15---15-10-10---10-|-12-12---12-14-14---14-|-12-12--12-14-14--14-|-10-10---10-15-15------|
G|-x--x----x--x--x----x--|-x--x----x--x--x----x--|-x--x---x--x--x---x--|-x--x----x--x--x-------|
D|-x--x----x--x--x----x--|-x--x----x--x--x----x--|-x--x---x--x--x---x--|-x--x----x--x--x-------|
A|-14-14---14-9--9----9--|-10-10---10-12-12---12-|-10-10--10-12-12--12-|-9--9----9--14-14------|
E|-----------------------|-----------------------|---------------------|-----------------------|


Guitarra 2:

E|-----------------------|-----------------------|---------------------|-----------------------|
B|-15-15---15-10-10---10-|-12-12---12-14-14---14-|-12-12--12-14-14--14-|-10-10---10-15-15------|
G|-x--x----x--x--x----x--|-x--x----x--x--x----x--|-x--x---x--x--x---x--|-x--x----x--x--x-------|
D|-x--x----x--x--x----x--|-x--x----x--x--x----x--|-x--x---x--x--x---x--|-x--x----x--x--x-------|
A|-14-14---14-9--9----9--|-10-10---10-12-12---12-|-10-10--10-12-12--12-|-9--9----9--14-14------|
E|-----------------------|-----------------------|---------------------|-----------------------|

Guitarra 1 4x:

E|-7-------10-9-------9--|-7-----7-10-9-----12-9-|-7----7-10-9----12-9-|-9-------9--10-7-----9-|
B|----7--10------7--10---|----8----------10------|----8---------10-----|----7--8----------7----|
G|-----------------------|-----------------------|---------------------|-----------------------|
D|-----------------------|-----------------------|---------------------|-----------------------|
A|-----------------------|-----------------------|---------------------|-----------------------|
E|-----------------------|-----------------------|---------------------|-----------------------|


(Riff)
Yeah, the night's not over
You're not trying hard enough,
Our lives are changing lanes
You ran me off the road,
The wait is over,
I'm now taking over,
You're no longer laughing
I'm not drowning fast enough.

Solo 1:51:
Guitarra 2:

E|-----------------|-----------------|-----------------|-----------------|
B|-9--7----7-------|---------------7-|-9--7----7-------|-----------------|
G|------9-----9--7-|-9--7-6--7--6----|------9-----9--7-|-9--7-6--7--6--4-|
D|-----------------|-----------------|-----------------|-----------------|
A|-----------------|-----------------|-----------------|-----------------|
E|-----------------|-----------------|-----------------|-----------------|

Guitarra 1:

E|-----------------|-----------------|-----------------|-----------------|
B|-----------------|-----------------|-----------------|-----------------|
G|-7-7-7-7-7-7-7-7-|-9-9-9-9-9-9-9-9-|-7-7-7-7-7-7-7-7-|-9-9-9-9-9-9-9-9-|
D|-9-9-9-9-9-9-9-9-|-9-9-9-9-9-9-9-9-|-9-9-9-9-9-9-9-9-|-9-9-9-9-9-9-9-9-|
A|-9-9-9-9-9-9-9-9-|-7-7-7-7-7-7-7-7-|-9-9-9-9-9-9-9-9-|-7-7-7-7-7-7-7-7-|
E|-----------------|-----------------|-----------------|-----------------|


Guitarra 2:

E|----7-----------10b-7-------=---7-7/12b-10--------------10--|12b--------------|
B|-10b~~7h9p7--7---|---10p7h9p7----7-|------13h11h12p10----10-|--13p10h12-------|
G|-----------10--7-|------------10---|------------------13----|----------13b----|
D|-----------------|-----------------|------------------------|-----------------|
A|-----------------|-----------------|------------------------|-----------------|
E|-----------------|-----------------|------------------------|-----------------|

Guitarra 1:

E|-----------------|-----------------|------------------------|-----------------|
B|-----------------|-----------------|------------------------|-----------------|
G|-7-7-7-7-7-7-7-7-|-9-9-9-9-9-9-9-9-|-7--7--7--7--7--7--7--7-|-9-9-9-9-9-9-9-9-|
D|-9-9-9-9-9-9-9-9-|-9-9-9-9-9-9-9-9-|-9--9--9--9--9--9--9--9-|-9-9-9-9-9-9-9-9-|
A|-9-9-9-9-9-9-9-9-|-7-7-7-7-7-7-7-7-|-9--9--9--9--9--9--9--9-|-7-7-7-7-7-7-7-7-|
E|-----------------|-----------------|------------------------|-----------------|


Guitarra 2:

E|-----------------|-----------------|-----------------|-----------------|
B|-9--7----7-------|---------------7-|-9--7----7-------|-----------------|
G|------9-----9--7-|-9--7-6--7--6----|------9-----9--7-|-4---------------|
D|-----------------|-----------------|-----------------|-----------------|
A|-----------------|-----------------|-----------------|-----------------|
E|-----------------|-----------------|-----------------|-----------------|


Verso 3 2x:
Guitarra 1:

E|-----------------|-----------------|-----------------|-----------------|
B|-----------------|-----------------|-----------------|-----------------|
G|-7-7-7-7-7-7-7-7-|-9-9-9-9-9-9-9-9-|-7-7-7-7-7-7-7-7-|-9-9-9-9-9-9-9-9-|
D|-9-9-9-9-9-9-9-9-|-9-9-9-9-9-9-9-9-|-9-9-9-9-9-9-9-9-|-9-9-9-9-9-9-9-9-|
A|-9-9-9-9-9-9-9-9-|-7-7-7-7-7-7-7-7-|-9-9-9-9-9-9-9-9-|-7-7-7-7-7-7-7-7-|
E|-----------------|-----------------|-----------------|-----------------|

Guitarra 2:

E|-----------------|-----------------|-----------------|-----------------|
B|-----------------|-----------------|-----------------|-----------------|
G|-x-x-7-x-x-x-7-x-|-x-x-7-x-x-x-7-x-|-x-x-9-x-x-x-9-x-|-x-x-9-x-x-x-9-x-|
D|-x-x-9-x-x-x-9-x-|-x-x-9-x-x-x-9-x-|-x-x-9-x-x-x-9-x-|-x-x-9-x-x-x-9-x-|
A|-x-x-9-x-x-x-9-x-|-x-x-9-x-x-x-9-x-|-x-x-7-x-x-x-7-x-|-x-x-7-x-x-x-7-x-|
E|-----------------|-----------------|-----------------|-----------------|


Verso 3 - 2x:
Now every time that I look at myself
"I thought I told you
this world is not for you"

Verso 4 - 4x:
Guitarra 1:

E|-----------------|-----------------|-----------------|-----------------|
B|-----------------|-----------------|-----------------|-----------------|
G|-7-7---7---------|-7-7---7---------|-------------7---|-------------7---|
D|---------9---7---|---------9---7---|-6-6---6-9-------|-6-6---6-9-------|
A|-----------------|-----------------|-----------------|-----------------|
E|-----------------|-----------------|-----------------|-----------------|

Guitarra 2:

E|-----------------|-----------------|-----------------|-----------------|
B|-----------------|-----------------|-----------------|-----------------|
G|-7-7-7-7-7-7-7-7-|-7-7-7-7-7-7-7-7-|-9-9-9-9-9-9-9-9-|-9-9-9-9-9-9-9-9-|
D|-9-9-9-9-9-9-9-9-|-9-9-9-9-9-9-9-9-|-9-9-9-9-9-9-9-9-|-9-9-9-9-9-9-9-9-|
A|-9-9-9-9-9-9-9-9-|-9-9-9-9-9-9-9-9-|-7-7-7-7-7-7-7-7-|-7-7-7-7-7-7-7-7-|
E|-----------------|-----------------|-----------------|-----------------|


Verso 4 - 4x:
The room is on fire as she's fixing her hair
"you sound so angry
just calm down, you found me"

I said please don't slow me down
If I'm going too fast
You're in a strange part of our town...

Riff:
Guitarra 2:

E|-----------------------|-----------------------|---------------------|-----------------------|
B|-15-15---15-10-10---10-|-12-12---12-14-14---14-|-12-12--12-14-14--14-|-10-10---10-15-15------|
G|-x--x----x--x--x----x--|-x--x----x--x--x----x--|-x--x---x--x--x---x--|-x--x----x--x--x-------|
D|-x--x----x--x--x----x--|-x--x----x--x--x----x--|-x--x---x--x--x---x--|-x--x----x--x--x-------|
A|-14-14---14-9--9----9--|-10-10---10-12-12---12-|-10-10--10-12-12--12-|-9--9----9--14-14------|
E|-----------------------|-----------------------|---------------------|-----------------------|


Guitarra 2:

E|-----------------------|-----------------------|---------------------|-----------------------|
B|-15-15---15-10-10---10-|-12-12---12-14-14---14-|-12-12--12-14-14--14-|-10-10---10-15-15------|
G|-x--x----x--x--x----x--|-x--x----x--x--x----x--|-x--x---x--x--x---x--|-x--x----x--x--x-------|
D|-x--x----x--x--x----x--|-x--x----x--x--x----x--|-x--x---x--x--x---x--|-x--x----x--x--x-------|
A|-14-14---14-9--9----9--|-10-10---10-12-12---12-|-10-10--10-12-12--12-|-9--9----9--14-14------|
E|-----------------------|-----------------------|---------------------|-----------------------|


Guitarra 2:

E|-----------------------|-----------------------|---------------------|-----------------------|
B|-15-15---15-10-10---10-|-12-12---12-14-14---14-|-12-12--12-14-14--14-|-10-10---10-15-15------|
G|-x--x----x--x--x----x--|-x--x----x--x--x----x--|-x--x---x--x--x---x--|-x--x----x--x--x-------|
D|-x--x----x--x--x----x--|-x--x----x--x--x----x--|-x--x---x--x--x---x--|-x--x----x--x--x-------|
A|-14-14---14-9--9----9--|-10-10---10-12-12---12-|-10-10--10-12-12--12-|-9--9----9--14-14------|
E|-----------------------|-----------------------|---------------------|-----------------------|

Guitarra 1:

E|-7-------10-9-------9--|-7-----7-10-9-----12-9-|-7----7-10-9----12-9-|-9-------9--10-7-----9-|
B|----7--10------7--10---|----8----------10------|----8---------10-----|----7--8----------7----|  (x4)
G|-----------------------|-----------------------|---------------------|-----------------------|
D|-----------------------|-----------------------|---------------------|-----------------------|
A|-----------------------|-----------------------|---------------------|-----------------------|
E|-----------------------|-----------------------|---------------------|-----------------------|


Guitarras 1 e 2:
E|-7--|
B|-7--|
G|-7--|
D|-9--|
A|-9--|
E|-7--|

Riff:
Yeah, the night's not over
You're not trying hard enough,
Our lives are changing lanes
You ran me off the road,
The wait is over
I'm now taking over,
You're no longer laughing
I'm not drowning fast enough.
Texto Columnas
Alterar tom ½ tono ½ tono
sintonización acordes esconder tabs más »

Comentarios 36

  • erickike erickike: Publicado en 23/12/2013 12:26

    ta tudo bem errado ae

  • surfista12 surfista12: Publicado en 17/07/2013 16:45

    essa musica eh maneirinha no baixo

  • kikamily kikamily: Publicado en 04/07/2013 12:19

    Se acham q essa música é difícil,voltem pra escolinha de música e olhe que as crianças de 12 anos do conservatório tocam isso fácil,facil,kk

    • johnnyvictor johnnyvictor: Publicado en 17/10/2013 15:27

      mano, na boa e mt facil, é, mas n precisa se-gabar pra td mundo, oks. lembra aki tem gente q ta iniciando.

  • killik killik: Publicado en 02/02/2013 15:55

    ta tudo certo, aki eu consigo fazer iguaalzinho na musica, só que o solo eu não to conseguindo entender

  • spectraspecs spectraspecs: Publicado en 15/12/2012 20:35

    Gente, os riffs estão certos... afinem o ouvido de vocês. Tá tudo certo. Tenta fazer escutando a música, algo do tipo, que dá tudo ok.

  • kost03 kost03: Publicado en 01/11/2012 16:23

    pronto ja consertei o riff do refrao só falta eles aceitarem lá

  • wiversonc wiversonc: Publicado en 01/10/2012 23:19

    ei cifra club coloca a video aula dessa musica aii caralho esse riff do albert hammond jr. ta todo errado porra!!! ei cifra coloca o video a

  • hard_rokr hard_rokr: Publicado en 15/08/2012 22:43

    Esse riff tá todo errado, e o break tá fodinha xD

  • victor.x victor.x: Publicado en 11/08/2012 19:53

    como pode esta sem video aula

Exhibiendo 10 de 36 comentarios Mostrar más ver todo »
Composición: Jack Blades / Juan Magan / Julian Casablancas
Ese no és el compositor? Avisenos.
Contribución: nilribeiro Correcciónes: kost03 , Zé Gotinha e mais 3 »
  1. Sweet Child O' Mine - Guns N' Roses mantiene 3.210 exhibiciones
  2. Wonderwall - Oasis mantiene 2.302 exhibiciones
  3. All Of Me - John Legend mantiene 2.142 exhibiciones
  4. Nothing Else Matters - Metallica mantiene 1.920 exhibiciones
  5. Stairway To Heaven - Led Zeppelin mantiene 1.598 exhibiciones
  6. When I Was Your Man - Bruno Mars mantiene 1.508 exhibiciones
  7. I'm Yours - Jason Mraz mantiene 1.430 exhibiciones
  8. The Scientist - Coldplay mantiene 1.418 exhibiciones
  9. More Than Words - Extreme mantiene 1.417 exhibiciones
  10. Hey Jude - The Beatles mantiene 1.331 exhibiciones
  1. The Beatles- mantiene 22.777 exhibiciones
  2. Guns N' Roses- mantiene 7.937 exhibiciones
  3. Metallica- mantiene 7.606 exhibiciones
  4. Coldplay- mantiene 5.407 exhibiciones
  5. Nirvana- mantiene 5.159 exhibiciones
  6. Oasis- mantiene 4.968 exhibiciones
  7. Red Hot Chili Peppers- mantiene 4.958 exhibiciones
  8. One Direction- mantiene 4.828 exhibiciones
  9. Bruno Mars- mantiene 4.670 exhibiciones
  10. Ed Sheeran- mantiene 4.101 exhibiciones
Exhibir acordes »

Acordes y tabs

Aprenda

Studio Sol

©1996 - 2014 Cifra Club · el primero, mayor y más accedido del Brasil · 341 mil músicas · 6.3 millones de personas registradas

publicidad
cerrar