Falling Slowly

The Frames

 The Frames Compositor: Glen Hasard
Tono: C
		

E|---------------0-------------------------1-----0--------|
B|---1-----3-----------3-------1-----3--------------------|
G|------0-----0-----0-----0-------0-----0-----0-----0-----|
D|--------------------------------------------------------|
A|---3-------------------------3--------------------------|
E|--------------------------------------------------------|



E|---------------0----------------------------------------|
B|---1-----3-----------3--------1-----1-----1-----1-------|
G|------0-----0-----0-----0--------0-----0-----0-----0----|
D|--------------------------------------------------------|
A|---3--------------------------3-------------------------|
E|--------------------------------------------------------|



E|--------------0--------------------0--------------------|
B|--------------------------------------------------------|
G|---------2---------2----------2---------2---------------|
D|--------------------------------------------------------|
A|------0-------------------3-----------------------------|
E|--------------------------------------------------------|



E|--------------------------------------------------------|
B|-------------1--------------------3---------------------|
G|----------2-----2--------------0-----0------------------|
D|--------------------------------------------------------|
A|--------------------------------------------------------|
E|------1-------------------3-----------------------------|


Intro: C F Am F F

C                 F
I don't know you, but I want you
C                 F
All the more for that
C                         F
Words fall through me, and always fool me
C               F
And I can't react

Am         G        F
Games that never amount
    G                  Am
To more than they're meant
      G                 F
Will play themselves out

C                 F
Take this sinking boat
             Am
And point it home
                F
We've still got time
C                  F
Raise your hopeful voice
          Am
You had a choice
               F
You've made it now

C               F
Falling slowly, eyes that know me
C                F
And I can't go back
C                   F
Moods that take me, and erase me
C                   F
And I'm painted black

Am           G         F
You have suffered enough
    G                 Am
And warred with yourself
     G              F
It's time that you won

C                F
Take this sinking boat
            Am
And point it home
                F
We've still got time
C                  F
Raise your hopeful voice
          Am
You had a choice
               F
You've made it now
C
Falling slowly
F             Am
Sing your melody
             F
I'll sing it loud

( C  F  C  F  C  F  C )
827 exhibiciónes

Comentarios 0

Composición: JONES / Mat Brooke / Miltinho Edilberto
Ese no és el compositor? Avisenos.
Contribución: Natan Kelm Correcciónes: christoph_ e mais 2 »
Exhibir acordes »
publicidad
cerrar