Love Song

The Cure

 The Cure
Tono: C
		
Am       G              F    Em
Whenever I'm alone with you
Am          G              F           Em
You make me feel like I am home again
Am       G              F    Em
Whenever I'm alone with you
Am          G              F            Em
You make me feel like I am whole again

Interlúdio 2x: Am  G  F  Em

Am  G  F  Em
Whenever I'm alone with you
You make me feel like I am young again
Whenever I'm alone with you
You make me feel like I am fun again

F       G        Am     C
However far away I will always love you
F       G           Am     C
However long I stay I will always love you
F        G           Am     C
Whatever words I say I will always love you
F      G             (Am G F Em)4x
I will always love you

Whenever I'm alone with you
You make me feel like I am free again
Whenever I'm alone with you
You make me feel like I am clean again

However far away
I will always love you
However long I stay
I will always love you
Whatever words I say
I will always love you

F       G             Am
I will always love you

Linha do Baixo nos versos:


E|--------------------------------------------------------------------------------
B|--------------------------------------------------------------------------------
G|--------------------------------------------------------------------------------
D|--------------------------------------------------------------------------------
A|--0--0--0--2-3------------0--0--2-------3--2--0----------2-2-3------------------
E|----------------3--3--3------------1--1-----------0-0-0-------------------------


Refrão:

E|--------------------------------------------------------------------------------
B|--------------------------------------------------------------------------------
G|--------------------------------------------------------------------------------
D|--------------------------------------7--7--7--7--7--7-10-10-10--10-10-10-------
A|--8--8--8--8--8--8-10-10-10-10-10-10--------------------------------------------
E|--------------------------------------------------------------------------------


 Transição do refrão para o verso:

E|------------------------------------------------
B|------------------------------------------------
G|------------------------------------------------
D|------------------------------------------------
A|--8--8--8--8--8--8-10-10-10-10-10-0--0--0--2-3--
E|------------------------------------------------

Comentarios 0

Composición: Robert Smith
Ese no és el compositor? Avisenos.
Contribución: R.Vieira
Exhibir acordes »
publicidad
cerrar