Lonely Boy

The Black Keys

 The Black Keys
Tono: D
		
Intro:


E|--------------------------------------------------------------------------|
B|--------------------------------------------------------------------------|
G|--------------------------------------------------------------------------|x4
D|--------------------------------------------------------------------------|
A|--------------------------------------------------------------------------|
E|---0-0-0-0-3b--0-0--0-0-0-0-3b-0------------------------------------------|


Riff 1: (com teclado)


E|--------------------------------------------------------------------------|
B|----5-5--5-3--------------------------------------------------------------|
G|---------------2-0-2---2-2--2-0-------------------------------------------|x2
D|----------------------------------2-0-2-----------------------------------|
A|--------------------------------------------------------------------------|
E|--------------------------------------------------------------------------|


Riff 2: (abafado)


        E E E E             E E E E          E E E E          E E E E
E|------0-0-0-0-------------0-0-0-0----------0-0-0-0----------0-0-0-0-------|
B|------0-0-0-0-------------0-0-0-0----------0-0-0-0----------0-0-0-0-------|
G|--------------------------------------------------------------------------|
D|--------------------------------------------------------------------------|
A|--------------------------------------------------------------------------|
E|---0--------------0-3b-0-----------0-3b-0-----------0-3b-0----------------|


E
Well I'm so above you
G                   A
And it's fine to see
E                  	   G	 A
But I came to love you anyway
E
So you tore my heart out
G			A
And I don't mind bleeding
E
Any old time to keep me waiting
G	   A
Waiting, waiting

Refrão:
E5		G		A
Oh, oh oh I got a love that keeps me waiting
E5		G		A
Oh, oh oh I got a love that keeps me waiting
E5
I'm a lonely boy
G		A
I'm a lonely boy
E5 		G		A
Oh, oh oh I got a love that keeps me waiting

E				G		A
Well your mama kept you but your daddy left you
E					G    A
And I should've done you just the same
E					G    A
But I came to love you and I'm gone to be
E
Any old time you keep me waiting
G	  A
Waiting, waiting
Texto Columnas
Alterar tom ½ tono ½ tono
sintonización acordes esconder tabs más »
4.718 exhibiciónes

Comentarios 11

  • vito vito: Publicado en 27/05/2013 19:27

    falta aglo...

  • João João: Publicado en 18/05/2013 00:54

    E------------------------B--5-5--3-5-3G----------------2-0-2--2-2-0-2-0D--------------------------------------2-0-2

  • José José: Publicado en 11/02/2013 15:12

    Muito Boa E Fácil De Tocar !!!

  • feer_faith feer_faith: Publicado en 28/01/2013 19:58

    Intro errada -.-

    • le113 le113: Publicado en 13/03/2013 23:12

      faça melhor ué

    • Igor Köhnlein Igor Köhnlein: Publicado en 03/04/2013 19:57

      Comentário removido

    • Igor Köhnlein Igor Köhnlein: Publicado en 03/04/2013 19:57

      Acabei de enviar uma correção com a intro correta e tudo mais. Espero ter ajudado. =]

    • Igor Köhnlein Igor Köhnlein: Publicado en 03/04/2013 20:04

      Acabei de enviar uma correção com a intro correta e tudo mais. Espero ter ajudado um pouquinho... =]

    • João João: Publicado en 18/05/2013 00:55

      E------------------------B--5-5--3-5-3G----------------2-0-2--2-2-0-2-0D--------------------------------------2-0-2acho q assim fica melhor

  • rickc32 rickc32: Publicado en 02/01/2013 12:44

    Eu não entendo essa parada de A e A- o negocio é igual.....qual é a diferença?

    • Bruno Bruno: Publicado en 03/04/2013 19:48

      Isso serve só pra aumentar a fonte do texto, por isso que é igual, porque não muda

Composición: Arcade Fire / Atrocity / Banana Jam / D. Green / Polly Anne Samson / Rodrigo Mell
Ese no és el compositor? Avisenos.
Contribución: le113 Correcciónes: Igor e mais 2 »
  1. Sweet Child O' Mine - Guns N' Roses mantiene 2.728 exhibiciones
  2. Wonderwall - Oasis mantiene 2.032 exhibiciones
  3. Nothing Else Matters - Metallica mantiene 1.577 exhibiciones
  4. When I Was Your Man - Bruno Mars mantiene 1.573 exhibiciones
  5. All Of Me - John Legend mantiene 1.541 exhibiciones
  6. Stairway To Heaven - Led Zeppelin mantiene 1.486 exhibiciones
  7. Hey Jude - The Beatles mantiene 1.425 exhibiciones
  8. More Than Words - Extreme mantiene 1.416 exhibiciones
  9. The Scientist - Coldplay mantiene 1.293 exhibiciones
  10. Wake Me Up - Avicii mantiene 1.105 exhibiciones
  1. The Beatles- mantiene 21.231 exhibiciones
  2. Guns N' Roses- mantiene 7.013 exhibiciones
  3. Metallica- mantiene 6.878 exhibiciones
  4. Red Hot Chili Peppers- mantiene 5.150 exhibiciones
  5. Coldplay- mantiene 5.004 exhibiciones
  6. Nirvana- mantiene 4.992 exhibiciones
  7. One Direction- mantiene 4.783 exhibiciones
  8. Bruno Mars- mantiene 4.579 exhibiciones
  9. Oasis- mantiene 4.430 exhibiciones
  10. Green Day- mantiene 3.608 exhibiciones
Exhibir acordes »

Acordes y tabs

Aprenda

Studio Sol

©1996 - 2014 Cifra Club · el primero, mayor y más accedido del Brasil · 336 mil músicas · 6.2 millones de personas registradas

publicidad
cerrar