The Beatles

Don't Let Me Down

1.485 reproducciones
INTRO
                     don't let...
|-------------|------------------|
|-------------|--14--------------|
|-------------|------------------|
|--O----------|------------------|

A %
   down                                                              
|--------------11--11--11--11--11----------|----------------------|
|*--------11-----------------------11-P-9--|-----------11-----11--|
|*--9--------------------------------------|--9-----9-------------|
|------------------------------------------|----------------------|

   down                                           don't...  
|------------9--9--9--9--9-----------|------------9--------|
|--------9-------------------9-H-11--|--------9---------9--|
|--7---------------------------------|--7------------------|
|------------------------------------|---------------------|

                                                    don't let...
|-------------11--11--11--11--11----------|-----------------------------|
|--------11-----------------------9-H-11--|--------11--(--11---11--)----|
|--9--------------------------------------|--9--------------------------|
|-----------------------------------------|-------------9-----------9---|

   down                               TO CODA
|------------9--9--9--9--9----------|
|--------9------------------9-H-11--|
|--7--------------------------------|
|-----------------------------------|

B
1____________________
   nobody...            does
   and from...          done me
|--------------------|---------------------|---------------------|--------------------|
|--------------------|--------11-----------|--------11-----------|--------9-----------|
|--7-----------------|--9---------------7--|--9---------------6--|--7--------------6--|
|--------------------|---------------9-----|---------------7-----|--------------7-----|

   and if...   
   I guess...
|------------|---------------------|------------------|--------------------|------9--9---|
|------------|--------11-----------|--------11--------|--------9-----------|------------*|
|--7---------|--9---------------7--|--9---------------|--7--------------6--|--7---------*|
|------------|---------------9-----|---------------7--|--------------7-----|-------------|

C
2__________________
   I'm in love...                             don't you...               last
|------------------|--------9---8---9---6--|--9--------9-----9-----9--|-----------------------|
|------------------|-----------------------|-----9--------6-----------|-----------------7-----|
|--7---------------|--7--------------------|--------------------9-----|--------9--6--6-----9--|
|------------------|-----------------------|--------------------------|--7--------------------|

        it's a love...                                       it's a love...
|--------------------------|--------------------------|--------------------------|
|--6-----------------------|--6-----------------------|--6-----------------------|
|-----7-----9--6--7-----6--|-----7-----9--6--7-----6--|-----7-----9--6--7-----6--|
|--------------------9-----|--------------------9-----|--------------------9-----|

   past
|-----------------------------------------|------------|
|----------------6---7--7--7--7--7--6-----|------------|
|--7--7---7-H-9------------------------9--|--7---------|
|-----------------------------------------|------------|

CODA
D
|------------|-------------------9-H-11--9-H-11--9-H-11--9--|
|------------|-----------9-H-11-----------------------------|
|--7---------|--9--9--9-------------------------------------|
|------------|----------------------------------------------|

|----------9-H-11--11----------------|---------------9--9-------------|
|--9-H-11------------------9---------|-----6--9--11--------11--9------|
|-----------------------9---------6--|--7-------------------------11--|
|------------------------------7-----|--------------------------------|

|-----------9-------------------|------------9-H-11--9-H-11--9-H-11--9-H-11--9-H-11--|
|--------9-----11--9------------|--------11------------------------------------------|
|--7------------------11--7--8--|--9--9----------------------------------------------|
|-------------------------------|----------------------------------------------------|

|--9-H-11--9-----------9-H-11-------------------|
|--------------9-H-11----------------11---------|
|------------------------------9--9----------6--|
|-----------------------------------------7-----|

|---------------9---------------------|-----------|
|---------6--9------7--7--7--7--7-----|-----------|
|--7--7----------------------------6--|--7--------|
|-------------------------------------|-----------|



_______________________________________________________
Contribuição: valdir felix junior(paulislivefaclube@ibest.com.br)

Comentarios 0

¿conseguiste tocar?

covers

¡Grave un vídeo tocando Don't Let Me Down y envie para nosotros!

Ex.: http://www.youtube.com/watch?v=0IvSvIwGdwk
ver cover de otras canciones »
0:00 / 0:00

Capitulos

    3 versões de guitarradificuldadreproduccionescontribuición y correción
    3 versões de guitarra eléctricadificuldadreproduccionescontribuición y correción
    3 versões de cavacodificuldadreproduccionescontribuición y correción
    3 versões de tecladodificuldadreproduccionescontribuición y correción
    4 versões de contrabajoreproduccionescontribuición y correción
    1 versão de armónicareproduccionescontribuición y correción
    3 versões de Guitar Proformatodownloadscontribuición
    1 versão de partiturasformatodownloadscontribuición
    play/pausefechar subir/bajar velocidad
    6ª cuerda E5ª cuerda A4ª cuerda D3ª cuerda G2ª cuerda B1ª cuerda E
      acordes
      publicidad
      cerrar
      ok