Besame Mucho

The Beatles

 The Beatles
(intro)
G|------- ------- ------- -------|------- ------- ------- -------|
D|-------------------------------|-------------------------------|
A|5----6-----5----3--------------|-------------------------------|
E|---------------------6-----5---|3------------------------------|
Verse:
G|------- ------- ------- -------|------- ------- ------- -------|
D|5-----------5------------------|5-----------5-----------5------|
A|----------------5-------5------|----------------5--------------|
E|-------------------------------|-------------------------------|
  Be  -   sa- me,                                 be - sa -  me
G|------- ------- ------- -------|------- ------- ------- -------|
D|----------------5-------5------|----------------5-------5------|
A|3-----------3------------------|3-----------3------------------|
E|-------------------------------|-------------------------------|
      mu   -  cho,
G|------- ------- ------- -------|------- ------- ------- -------|
D|-------------------------------|-------------------------------|
A|3-----------3---2-------2------|1-----------0---5-------5------|
E|-------------------------------|-------------------------------|
  Each time  I    bring you       kiss,       I   hear mu  - sic
G|------- ------- ------- -------|------- ------- ------- -------|
D|5-----------5------------------|5-----------5------------------|
A|----------------5-------5------|----------------5-------5------|
E|-------------------------------|-------------------------------|
  di- vine                                                So,

G|------- ------- ------- -------|------- ------- ------- -------|
D|5------------------------------|----------------5--------------|
A|--------5----------------------|--------5---------------5------|
E|----------------6-------3------|6------------------------------|
  be    -     sa  -   me,                         be - sa -  me
G|------- ------- ------- -------|------- ------- ------- -------|
D|------------5------------------|------------5------------------|
A|3-------6----------------------|3-------6---------------3------|
E|------------------------3------|-------------------------------|
  mu- cho,                                                I'll
G|------- ------- ------- -------|------- ------- ------- -------|
D|5-----------------------5------|-------------------------------|
A|--------6-------5--------------|6-----------6---5--------------|
E|-------------------------------|-------------------------------|
  love you   for- e - ver,    say     that you'll al - ways
G|------- ------- ------- -------|------- ------- ------- -------|
D|-------------------------------|-------------------------------|
A|5----6-----5----3--------------|------------------------5------|
E|---------------------6-----5---|3------------------------------|
  be  mine
Verse:
G|------- ------- ------- -------|------- ------- ------- -------|
D|5-----------5------------------|5-----------5-----------5------|
A|----------------5-------5------|----------------5--------------|
E|-------------------------------|-------------------------------|
  Dea  -  rest one,                               if   you   should
G|------- ------- ------- -------|------- ------- ------- -------|
D|----------------5-------5------|----------------5-------5------|
A|3-----------3------------------|3-----------3------------------|
E|-------------------------------|-------------------------------|
  leave   me,                                                 Then
G|------- ------- ------- -------|------- ------- ------- -------|
D|-------------------------------|----------------0-------0------|
A|3-----------3---2-------2------|1-----------1------------------|
E|-------------------------------|-------------------------------|
  each    little  dream will take wings,      and my   life  will
G|------- ------- ------- -------|------- ------- ------- -------|
D|5-----------5-----------4------|5-----------5------------------|
A|----------------5--------------|----------------5-------5------|
E|-------------------------------|-------------------------------|
  be  through                                 Oh,
G|------- ------- ------- -------|------- ------- ------- -------|
D|5------------------------------|----------------5--------------|
A|--------5----------------------|--------5---------------5------|
E|----------------6-------3------|6------------------------------|
  be    -     sa  -   me,                         be - sa -  me
G|------- ------- ------- -------|------- ------- ------- -------|
D|------------5------------------|------------5------------------|
A|3-------6----------------------|3-------6---------------3------|
E|------------------------3------|-------------------------------|
  mu- cho,                                                Ooh,
G|------- ------- ------- -------|------- ------- ------- -------|
D|5-----------------------5------|-------------------------------|
A|--------6-------5--------------|6-----------6---5--------------|
E|-------------------------------|-------------------------------|
  love me    for- e - ver,        make all   my   dreams      come
G|------- ------- ------- -------|------- ------- ------- -------|
D|-------------------------------|----------------5--------------|
A|5----6-----5----3--------------|-------------------------------|
E|---------------------6-----5---|3------------------------------|
      true                                        Ooh,
Bridge:
G|------- ------- ------- -------|------- ------- ------- -------|
D|----------------5-------5------|----------------5--------------|
A|3-----------3------------------|3-----------3-----------3------|
E|-------------------------------|-------------------------------|
  this            joy     is      some     -      thing   new,
G|------- ------- ------- -------|------- ------- ------- -------|
D|5------------------------------|5-----------------------5------|
A|--------6-------5-------5------|--------6-------5--------------|
E|-------------------------------|-------------------------------|
      my          arms    en    -     fol         ding    you,
G|------- ------- ------- -------|------- ------- ------- -------|
D|------------7-----------7------|------------7------------------|
A|5------------------------------|5-----------------------5------|
E|-------------------------------|-------------------------------|
                  Ne- ver     knew    this
G|------- ------- ------- -------|------- ------- ------- -------|
D|5------------------------------|5-----------------------5------|
A|------------5-----------5------|------------5---5--------------|
E|----------------6--------------|-------------------------------|
  thrill be- fore
G|------- ------- ------- -------|------- ------- ------- -------|
D|----------------5-------5------|----------------5--------------|
A|3-----------3------------------|3-----------3-----------3------|
E|-------------------------------|-------------------------------|
  Who             e   -   ver     thought         I'd     be
G|------- ------- ------- -------|------- ------- ------- -------|
D|5------------------------------|5-----------------------5------|
A|--------6-------5-------5------|--------6-------5--------------|
E|-------------------------------|-------------------------------|
      hol    -    ding    you         close       to      me,
G|------- ------- ------- -------|------- ------- ------- -------|
D|7-------7----------------------|7-----------7------------------|
A|----------------7--------------|------------------------7------|
E|------------9-----------9------|----------------9--------------|
  Whispering:                    "It's you                    I
G|------- ------- ------- -------|------- ------- ------- -------|
D|----------------7-------7------|----------------7--------------|
A|5-----------5------------------|5-----------5-----------5------|
E|-------------------------------|-------------------------------|
      a   -   dore"                                   Yes,    so,
Verse:
G|------- ------- ------- -------|------- ------- ------- -------|
D|5-----------5-----------4------|5-----------5------------------|
A|----------------5--------------|----------------5-------4------|
E|-------------------------------|-------------------------------|
  dea  -  rest one,                               if   you   should
G|------- ------- ------- -------|------- ------- ------- -------|
D|----------------5-------5------|----------------5-------5------|
A|3-----------3---------------2--|3-----------3------------------|
E|-------------------------------|-------------------------------|
  leave   me,                                                 Then
G|------- ------- ------- -------|------- ------- ------- -------|
D|-------------------------------|-------------------------------|
A|3-----------3---2-------2------|1-----------0---5-------5------|
E|-------------------------------|-------------------------------|
  each    little  dream will take wings,      and my   life  will
G|------- ------- ------- -------|------- ------- ------- -------|
D|5-----------5-----------4------|5-----------5------------------|
A|----------------5--------------|----------------5-------5------|
E|-------------------------------|-------------------------------|
  be  through                                 Oh,
G|------- ------- ------- -------|------- ------- ------- -------|
D|5------------------------------|----------------5--------------|
A|--------5----------------------|--------5---------------5------|
E|------------6---\---5---3------|6------------------------------|
  be    -     sa  -   me,                         be - sa -  me
G|------- ------- ------- -------|------- ------- ------- -------|
D|------------5------------------|------------5------------------|
A|3------------------------------|3-----------------------3------|
E|------------------------3------|-------------------------------|
  mu- cho,                                                Ooh,
G|------- ------- ------- -------|------- ------- ------- -------|
D|5-----------------------5------|-------------------------------|
A|--------6-------5--------------|6-----------6---5--------------|
E|-------------------------------|-------------------------------|
  love me    for- e - ver,        make all   my   dreams      come
G|------- ------- ------- -------|------- ------- ------- -------|
D|-------------------------------|----------------5-----------5--|
A|5----6-----5----3--------------|-------------------------------|
E|---------------------6-----5---|3------------------------------|
      true                                        Ooh,
Bridge:
G|------- ------- ------- -------|------- ------- ------- -------|
D|----------------5-------5------|----------------5--------------|
A|3-----------3------------------|3-----------3-----------3------|
E|-------------------------------|-------------------------------|
  this            joy     is      some     -      thing   new,
G|------- ------- ------- -------|------- ------- ------- -------|
D|5------------------------------|5-----------------------5------|
A|--------6-------5-------5------|--------6-------5--------------|
E|-------------------------------|-------------------------------|
      my          arms    en    -     fol         ding    you,
G|------- ------- ------- -------|------- ------- ------- -------|
D|------------7-----------7------|------------7---------------3--|
A|5------------------------------|5-----------------------5------|
E|-------------------------------|-------------------------------|
                  Ne- ver     knew    this
G|------- ------- ------- -------|------- ------- ------- -------|
D|5-----------5------------------|5-----------5------------------|
A|----------------5-------5------|----------------5-------4------|
E|-------------------------------|-------------------------------|
  thrill be- fore
G|------- ------- ------- -------|------- ------- ------- -------|
D|----------------5-------5------|----------------5--------------|
A|3-----------3------------------|3-------6---3-----------3------|
E|-------------------------------|-------------------------------|
  Who             e   -   ver     thought         I'd     be
G|------- ------- ------- -------|------- ------- ------- -------|
D|5-----------5------------------|5-----------------------5------|
A|----------------5-------5------|--------6-------5--------------|
E|-------------------------------|-------------------------------|
      hol    -    ding    you         close       to      me,
G|------- ------- ------- -------|------- ------- ------- -------|
D|7------------------------------|7------------------------------|
A|--------7-------7--------------|--------7---------------7------|
E|------------9-----------9------|----------------9--------------|
  Whispering:                    "It's you                    I
G|------- ------- ------- -------|7------ ------- ------- -------|
D|----------------7-------7------|--------7---------------7------|
A|5-----------5------------------|----------------5--------------|
E|-------------------------------|-------------------------------|
      a   -   dore"                                    Oh,   so,
Verse:
G|------- ------- ------- -------|------- ------- ------- -------|
D|5-----------5---------------4--|5-----------5-----------5------|
A|----------------5-------5------|----------------5--------------|
E|-------------------------------|-------------------------------|
  dea  -  rest one,                               if   you   should
G|------- ------- ------- -------|------- ------- ------- -------|
D|----------------5-------5------|----------------5-------5------|
A|3-----------3------------------|3-----------3------------------|
E|-------------------------------|-------------------------------|
  leave   me,                                                 Then
G|------- ------- ------- -------|------- ------- ------- -------|
D|-------------------------------|------------5------------------|
A|3-----------3---2-------2------|1---------------5-------5------|
E|-------------------------------|-------------------------------|
  each    little  dream will take wings,      and my   life  will
G|------- ------- ------- -------|------- ------- ------- -------|
D|5-----------5-----------4------|5-----------5------------------|
A|----------------5--------------|----------------5-------5---4--|
E|-------------------------------|-------------------------------|
  be  through                                 Oh,         so,
G|------- ------- ------- -------|------- ------- ------- -------|
D|5------------------------------|----------------5--------------|
A|--------5----------------------|--------5---------------5------|
E|----------------6-------3------|6------------------------------|
  be    -     sa  -   me,                         be - sa -  me
G|------- ------- ------- -------|------- ------- ------- -------|
D|------------5------------------|------------5------------------|
A|3-------6----------------------|3-------6---------------3------|
E|------------------------3------|-------------------------------|
  mu- cho,                                                Ooh,
G|------- ------- ------- -------|------- ------- ------- -------|
D|5-----------------------5------|-------------------------------|
A|--------6-------5--------------|6-----------6---5--------------|
E|-------------------------------|-------------------------------|
  love me    for- e - ver,        make all   my   dreams      come
G|------- ------- ------- -------|------- ------- ------- -------|
D|-------------------------------|----------------5--------------|
A|5----6-----5----3--------------|-------------------------------|
E|---------------------6-----5---|3------------------------------|
      true                                       Ooh,
Outro:
G|------- ------- ------- -------|------- ------- ------- -------|
D|5-----------------------5------|-------------------------------|
A|--------6-------5--------------|6-----------6---5--------------|
E|-------------------------------|-------------------------------|
  love me    for- e - ver,        make all   my   dreams      come
G|------- ------- ------- -------|------- ------- ------- -------|
D|-------------------------------|----------------5--------------|
A|5----6-----5----3--------------|-------------------------------|
E|---------------------6-----5---|3------------------------------|
      true
Repeat and fade out...
322 exhibiciónes

Comentarios 0

Composición: Velazquez
Ese no és el compositor? Avisenos.
Consigo tocarSin embargo, para tocar esta canción. ¡Sé el primero!
    Aún no puedo reproducir
    publicidad
    cerrar