And I Love Her

The Beatles

 The Beatles
Tono: G#
		
Intro:

                       Fm             Eb6              Fm
E|-------------------------------------------------------|
B|-------------------------------------------------------|
G|-------------------------------------------------------|
D|---1--0-----------1--0-------------1--0----------------|
A|-1-------3------1-------3-------1--------3-------------|
E|-------------------------------------------------------|


Fm        Cm           Fm           Cm
I give her all my love    That's all I do
Fm        Cm             G#             A#7
And if you saw my love    You'd love her too
   D#
I love her


                Fm                          Cm
E|---------8------------8-----------8-----------8----------|
B|------9-----9------9-----9-----8-----8-----8-----8-------|
G|--10-----------10-----------8-----------8----------------|
D|---------------------------------------------------------|
A|---------------------------------------------------------|
E|---------------------------------------------------------|

           She    gives  me       every     thing

Fm       Cm     Fm           Cm
And tenderly        The kiss my lover brings


                G#                            A#
E|--------8-----------8------------10--------------------|
B|-----9-----9-----9-----9------9------9-----------------|
G|--8-----------8-----------10---------------------------|
D|-------------------------------------------------------|
A|-------------------------------------------------------|
E|-------------------------------------------------------|

          She    brings to      me


                                D#
E|---------10-----------8-----------8-----------8------------|
B|------9------9-----8-----8-----8-----8-----8-----8---------|
G|--10------------8-----------8-----------8-----------8------|
D|-----------------------------------------------------------|
A|-----------------------------------------------------------|
E|-----------------------------------------------------------|

       And  I  love    her

Cm          A#      Cm        Gm
A love like ours    could never die
Cm       Gm             A#7
As long as I   have you near me

Fm             Cm               Fm         Cm
Bright are the stars that shine   Dark is the sky
Fm         Cm             G#          A#
I know this love of mine   Will never die
        D#
And I love her

Solo: F#m  C#m  F#m  C#m  F#m  C#m  A  B7  E  F#m


E|------------------------------------------------------------------------------------|
B|------------------------------------------------------------------------------------|
G|---------8-6/9---------8/6---------8-6/9---9/6--------------------------------------|
D|--4--6-7--------4--6-7------4--6-7-------------7-6-6/4-------6----------------------|
A|-------------------------------------------------------2-2-4---2--------------------|
E|-----------------------------------------------------------------4-2-0-2------------|


F#m              C#m                F#m          C#m
Bright are the stars that shine   Dark is the sky
F#m          C#m              A         B7
I know this love of mine   Will never die
        E
And I love her

Final: F#m  C#m  F#m  C#
Texto Columnas
Alterar tom ½ tono ½ tono
sintonización acordes esconder tabs más »

Comentarios 29

  • tankians tankians: Publicado en 06/07/2014 23:20

    Música Perfeita :')

  • Jéssika Jéssika: Publicado en 16/03/2014 19:49

    qual é o ritmo?

    • gabrielcostta gabrielcostta: Publicado en 21/04/2014 19:57

      pra baixo,pra baixo,pra baixo,pra cima

  • guilhermepereiramello guilhermepereiramello: Publicado en 02/01/2014 23:48

    ficou muito bom .. realmente ótimo mas só uma coisa se forem tocar junto com o clipe que aparece automaticamente, abaixem 1 semitom do tom

    • sofia.pedroso.58 sofia.pedroso.58: Publicado en 09/06/2014 14:46

      As leis dos dedos médios não permitem que eu faça o acorde Eb6 -.-

    • luis henrique luis henrique: Publicado en 17/10/2014 - 20:03

      É nois heueheuheueheuheueheu

  • Tiago Tiago: Publicado en 24/11/2013 10:11

    Tocar na varanda naquele friozinho ......

  • Guilherme Guilherme: Publicado en 23/11/2013 22:37

    Façam video-aula pfv!!

    • Matheus Matheus: Publicado en 23/09/2014 23:09

      façam =)

  • giovani giovani: Publicado en 04/10/2013 16:30

    música muito linda

Exhibiendo 10 de 29 comentarios Mostrar más ver todo »
Composición: Harry Warren / John Lennon / Paul McCartney / W. Jean / William Steinberg
Ese no és el compositor? Avisenos.
Contribución: Johnny Correcciónes: gabrielcostta , viniciuschargel e mais 11 »
  1. Sweet Child O' Mine - Guns N' Roses mantiene 3.132 exhibiciones
  2. Wonderwall - Oasis mantiene 2.337 exhibiciones
  3. All Of Me - John Legend mantiene 2.079 exhibiciones
  4. Nothing Else Matters - Metallica mantiene 1.818 exhibiciones
  5. Stairway To Heaven - Led Zeppelin mantiene 1.611 exhibiciones
  6. When I Was Your Man - Bruno Mars mantiene 1.581 exhibiciones
  7. More Than Words - Extreme mantiene 1.418 exhibiciones
  8. I'm Yours - Jason Mraz mantiene 1.405 exhibiciones
  9. The Scientist - Coldplay mantiene 1.387 exhibiciones
  10. Hey Jude - The Beatles mantiene 1.308 exhibiciones
  1. The Beatles- mantiene 22.347 exhibiciones
  2. Guns N' Roses- mantiene 7.730 exhibiciones
  3. Metallica- mantiene 7.209 exhibiciones
  4. Coldplay- mantiene 5.242 exhibiciones
  5. Nirvana- mantiene 5.063 exhibiciones
  6. One Direction- mantiene 5.031 exhibiciones
  7. Oasis- mantiene 5.014 exhibiciones
  8. Red Hot Chili Peppers- mantiene 5.001 exhibiciones
  9. Bruno Mars- mantiene 4.798 exhibiciones
  10. Ed Sheeran- mantiene 4.249 exhibiciones
Exhibir acordes »

Acordes y tabs

Aprenda

Studio Sol

©1996 - 2014 Cifra Club · el primero, mayor y más accedido del Brasil · 341 mil músicas · 6.3 millones de personas registradas

publicidad
cerrar