Bring It On Home To Me

The Animals

 The Animals
(intro)

G|---------------------------------------|
D|-------------------------4--7--4--7----|
A|--------2--5--2--5--5------------------|
E|---3-----------------------------------|

G|---------------------------------------|
D|-------------------------4--7--4--7----|
A|--------2--5--2--5--5------------------|
E|---3-----------------------------------|

(the bass line is the same in all verses including the piano solo)
G|---------------------------------------|
D|-------------------------4--7--4--7----|
A|--------2--5--2--5--5------------------|
E|---3-----------------------------------|

G|---------------------------------------|
D|-------------------------2--5--2--5----|
A|--------2--5--2--5--3------------------|
E|---3-----------------------------------|

G|------------------------------------------------|
D|------------------------------------------------|
A|--------2--5--2--5--3----3--4--5---5--3---------|
E|---3-------------------------------------5--3---|

G|-----------------------------------------------------|
D|-----------------------------------------------------|
A|------0--2--3---3--2--0--------0--2--5--5--3---------|
E|---3---------------------3--3-----------------5--3---|

(final)
G|------------------------------------------------------|
D|------------------------------------------------------|
A|------0--2--3---3--2--0--------0--2--3---3--2--0------|
E|---3---------------------3--3---------------------3---|

G|------------------------------------------------------|
D|------------------------------------------------------|
A|------0--2--3---3--2--0--------0--2--3---3--2--0------|
E|---3---------------------3--3---------------------3---|

G|------------------------------------------------------|
D|------------------------------------------------------|
A|------0--2--3---3--2--0--------0--2--3---3--2--0------|
E|---3---------------------3--3---------------------3---|
15 exhibiciónes

Comentarios 0

Composición: B. Moody / Luis Díaz / Sam Cooke
Ese no és el compositor? Avisenos.
Contribución: _lipemarques Correcciónes: _lipemarques »
Consigo tocarSin embargo, para tocar esta canción. ¡Sé el primero!
    Aún no puedo reproducir
    publicidad
    cerrar