Me Faz Viver

Thalles Roberto

 Thalles Roberto
Tono: C
		

E|--------------------------------------------------------------
B|--------------------------------------------------------------
G|----------7--x-x--5-x-x--5-x---5h7----------------------------
D|----------7--x-x--5-x-x--5-x----------------------------------
A|-3/5----------------------------------------------------------
E|--------------------------------------------------------------



E|--------------------------------------------------------------
B|--------------------------------------------------------------
G|----------7--x--x--5------------------------------------------
D|----------7--x--x--5------------------------------------------
A|-3/5----------------------------------------------------------
E|--------------------------------------------------------------




E|------------13-13-13-13-13------------------------------------
B|------------12-12-12-12-12------------------------------------
G|------------10-10-10-10-10------------------------------------
D|--------------------------------------------------------------
A|--------------------------------------------------------------
E|--------------------------------------------------------------

Comentarios 0

Exhibir acordes »
publicidad
cerrar