Eu Escolho Deus

Thalles Roberto

 Thalles Roberto
Tono: G
		
    G5                             C9
Senhor, eu nasci pra te chamar de Deus
                           Am7
Eu nasci pra te chamar de pai e andar do
     C9
Seu lado
    G5                          C9
Senhor desde o ventre da minha mãe
                       Am7
Eu sou povo exclusivo Seu, eu sou
     C9                G5
Abençoado se vivo obediente


   C7M
E|------------------------------------------
B|--------0------------------0--------------
G|----0-------0---------0--------0----------
D|--2---2---2---2-----2---2----2---2--------
A|-3-----------------3----------------------
E|------------------------------------------



   D6(11)
E|------------------------------------------
B|--------0------------------0--------------
G|----0-------0---------0--------0----------
D|--4---4---4---4-----4---4----4---4-------
A|-5-----------------5----------------------
E|------------------------------------------



C7M                        D6(11)
    Mas todo dia o pecado vem, me
  C7M
Chama
                       D6(11)     C7M
Todo dia as propostas vêm, me chamam
                      D6(11)      C7M
Todo dia vêm as tentações, me chamam
                   D6(11)
Todo dia o pecado vem

Refrão:
                G5
Mas eu escolho Deus, eu escolho ser amigo
    C9
De Deus
                        Am7
Eu escolho Cristo todo dia
                                      C9
já morri pra minha vida agora vivo a vida de Deus!   (2x)


    G5                              C9
Senhor, eu nasci pra te chamar de Amor
                           Am7
Eu nasci pra te chamar de pai e andar do
     C9
Seu lado
    G                           C9
Senhor desde o ventre da minha mãe
                       Am7
Eu sou povo exclusivo Seu, eu sou
     C9                G5
Abençoado se vivo obediente

C7M                        D6(11)
    Mas todo dia o pecado vem, me
  C7M
Chama
                      D6(11)     C7M
Todo dia vêm as tentações, me chamam
                       D6(11)     C7M
Todo dia as propostas vêm, me chamam
                   D6(11)
Todo dia o pecado vem

Refrão:
                G5
Mas eu escolho Deus, eu escolho ser amigo
    C9
De Deus
                        Am7
Eu escolho Cristo todo dia
                                      C9
já morri pra minha vida agora vivo a vida de Deus!   (2x)

Passagem:

   G5
E|-3--3--3----------------------------------
B|-3--3--3----------------------------------
G|-0--0--0----------------------------------
D|-0--0--0-----------0----------------------
A|-------------0--2-------------------------
E|-3-3-3--3---------------------------------

Comentarios 175

Exhibiendo 10 de 175 comentarios Mostrar más ver todo »
Composición: Thalles Roberto
Ese no és el compositor? Avisenos.
Contribución: luciano420 Correcciónes: JR , zeh_prih e mais 3 »
Exhibir acordes »
publicidad
cerrar