Piratas do Caribe

Temas de Filmes

 Temas de Filmes
Tono: A
		

 E|----------------------------------------------------------------
 B|--------------5---6-6-6--8----5-5-5-----------------------------
 G|-----5--7-7--------------------------7-5-7b---------------------  (2x)
 D|---7------------------------------------------------------------
 A|----------------------------------------------------------------
 E|----------------------------------------------------------------



 E|------------------------------------------5---6-6-6--5----5-----
 B|--------------5---6-6-6--8----5-5-5---8-----------------8-------
 G|-----5--7-7---------------------------------------------------7-
 D|---7------------------------------------------------------------
 A|----------------------------------------------------------------
 E|----------------------------------------------------------------



 E|-------------------5--------------------------------------------
 B|----------------8----------5h6h5--5-5---5-----------------------
 G|------5--7-7----------7---------------7-------------------------
 D|---7------------------------------------------------------------
 A|----------------------------------------------------------------
 E|----------------------------------------------------------------


 (repete tudo)


 E|-------------------5--3-----6----------6------------------------
 B|---------------8---------------6----------6--------9--10--------
 G|------5--7-7----------------------------------------------------
 D|---7------------------------------8-----------8-----------------
 A|----------------------------------------------------------------
 E|----------------------------------------------------------------



 E|----------------------------------------------------------------
 B|----10--10--10---11--10----8--8--8--9---------------------------
 G|----10--10--10---10--10----9--9--9--9--------------------------- (2x)
 D|----------------------------------------------------------------
 A|----------------------------------------------------------------
 E|----------------------------------------------------------------



 E|----------------------------------------------------------------
 B|---4h8--7--6---5------------------------------------------------
 G|---5h9--8--7---6----7-------------------------------------------
 D|----------------------------------------------------------------
 A|----------------------------------------------------------------
 E|----------------------------------------------------------------



 E|----------------------------------------------------------------
 B|---------------8--10--8-8----------8h10-8-----------------------
 G|---7--9--10-10------------10-9-10-------------------------------
 D|----------------------------------------------------------------
 A|----------------------------------------------------------------
 E|----------------------------------------------------------------



 E|----------------------------------------------------------------
 B|---------------8--10--8-8---------------------------------------
 G|---7--9--10-10------------10-9h10h9-9-7-------------------------
 D|----------------------------------------------------------------
 A|----------------------------------------------------------------
 E|----------------------------------------------------------------



 E|----------------------------------------------------------------
 B|---------------8--10--11-------8-------8------------------------
 G|---7--9--10----------------7-------10-----7---------------------
 D|---------------------------------------------9------------------
 A|----------------------------------------------------------------
 E|----------------------------------------------------------------



 E|----------------------------------------------------------------
 B|----10--10--10---11--10----8--8--8--9----4h8--7--6--6-----------
 G|----10--10--10---10--10----9--9--9--9----5h9--8--7--5-----------
 D|----------------------------------------------------------------
 A|----------------------------------------------------------------
 E|----------------------------------------------------------------

Comentarios 2

Composición: Sabe quien és el compositor? Envíenos. Contribución: victoro10 Correcciónes: A7X e mais 1 »
Exhibir acordes »
publicidad
cerrar