Roulette

System Of a Down

 System Of a Down
Tono: F#
		
(riff 1)


E|-------------------------------------------------------------------------------------------|
B|-----4---------4--------8--------3--------6---------6--------------------------------------|
G|-------------------------------------------------------------------------5--------------7--|
D|-------------------------------------------------------------------------------------------|
A|-3-----3--3------3/6-----0--1-----1/4-----4--4---------------------------------------------|
E|-------------------------------------------------------------3—4---------4---6-------------|



(riff 2)


D|----------------------------------------------------------------|
A|---6-----6------2-----2------5-----5------3------5--------------|
F|----------------------------------------------------------------|2x
C|----------------------------------------------------------------|
G|-5---5-5---5--0---0-0---0--3---3-3---3--1---1--3---3------------|
C|----------------------------------------------------------------|


(solo 1)


D|-10-10-12-13-12-13-15-12-13-15-13-12-10-12-13-12-10-10----------|
A|----------------------------------------------------------------|
F|----------------------------------------------------------------|
C|----------------------------------------------------------------|
G|----------------------------------------------------------------|
C|----------------------------------------------------------------|




D|-5-5-5-6-8-5-3-5-6-5-3-3-1-1------------------------------------|
A|----------------------------------------------------------------|
F|----------------------------------------------------------------|
C|----------------------------------------------------------------|
G|----------------------------------------------------------------|
C|----------------------------------------------------------------|




D|-4~6-5-5-3-3-1-1------------------------------------------------|
A|-6~8-6-6-5-5-3-3------------------------------------------------|
F|----------------------------------------------------------------|
C|----------------------------------------------------------------|
G|----------------------------------------------------------------|
C|----------------------------------------------------------------|


(solo 2)


D|-13-13-15-17-15-17-18-17-18-20-17-18-20-18-17-15-17-18-17-15-15-|
A|----------------------------------------------------------------|
F|----------------------------------------------------------------|
C|----------------------------------------------------------------|
G|----------------------------------------------------------------|
C|----------------------------------------------------------------|



D|-13-13-12-13-15-13-12-10-12-13-12-10-10-------------------------|
A|----------------------------------------10-10-------------------|
F|----------------------------------------------------------------|
C|----------------------------------------------------------------|
G|----------------------------------------------------------------|
C|----------------------------------------------------------------|



D|-15-13-13-12-12-9--9--------------------------------------------|
A|-17-15-15-13-13-10-10-------------------------------------------|
F|----------------------------------------------------------------|
C|----------------------------------------------------------------|
G|----------------------------------------------------------------|
C|----------------------------------------------------------------|


(intro)

(riff 1 - 2x)
          ____
         |                                           --------------|
         |    I have a problem that I cannot explain,              |
         |    I have no reason why it should have been so plain,   |(riff 1 - 2x)
primeiro |    Have no questions but I sure have excuse,            |
 verso   |    I lack the reason why I should be so confused,       |

         |____                                       --------------|


          ____                                       --------------|
         |                                                         |
         |      I know, how I feel when I'm around you,            |(riff 2 - 2x)
(refrão) |      I don't know, how I feel when I'm around you,_ _ _ |
         |      Around you,_ _ _ _ _ _ _ _ _ _ _ _ _ _ _ _ _ _ _ _ |

         |____


(riff 1) 2x
          ____
         |                                           --------------|
         | Left a message but it ain't a bit of use,               |
segundo  | I have some pictures, the wild might be the deuce,      |(riff 1 - 2x)
 verso   | Today you saw, you saw me, you explained,               |
         | Playing the show and running down the plane,            |

         |____                                       --------------|


          ____
         |                                           --------------|
         | I... I know, how I feel when I'm around you,            |
(refrão) | I don't know, how I feel when I'm around you,           |(riff 2 - 4x)
         | I... I know, how I feel when I'm around you,            |
         | I don't know, how I feel when I'm around you,_ _ _ _ _ _|
         | Around you, Around you...            _ _ _ _ _ _ _ _ _ _|(riff 1 - 2x)

         |____


(riff 1 - 4x) (solo 1 uma vez,em seguida solo 1 e solo 2 junto)

         ____
        |                                       -------------------|
        | I... I know, how I feel when I'm around you,             |
        | I don't know, how I feel when I'm around you,            |(riff 2 - 4x)
(refrão)| I... I know, how I feel when I'm around you,             |
        | I don't know, how I feel when I'm around you,      _ _ _ |
        | (riff 1 - 4x)                               (riff 2)     |
        | Around you, Around you, Around you,Around you I...       |

        |____                                  _ _ _ _ _ _ _ _ _ _ |
Texto Columnas
Alterar tom ½ tono ½ tono
sintonización acordes esconder tabs más »

Comentarios (99)

  • biel.best biel.best: Publicado en 10/01/2014 16:18

    Esta parte aqui é a unica q nao to conciguindo pq nao entendo, parece q nao encaixa :/, sei lá nao sai
    D|-4~6-5-5-3-3-1-1
    A|-6~8-6-6-5-5-3-3

  • Alisson Alisson: Publicado en 22/10/2013 20:42

    Só mudar o Tom para B, que o solo fica certo!

  • matheus.motter matheus.motter: Publicado en 03/10/2013 15:11

    só um problema.... meu violão tem 19 casa ai tem 20 o.o

    • Eduardo Eduardo: Publicado en 12/10/2013 15:23

      Se só vc tocar a música, não precisará do solo 2

  • Alisson Alisson: Publicado en 02/10/2013 13:32

    Deixem o Tom: A#, que fica certo

  • chrristopher chrristopher: Publicado en 25/08/2013 10:20

    versão 4 ta bem legal na afinação padrão deem uma olhada

  • Eric Eric: Publicado en 21/08/2013 13:25

    Ta tudo errado... Eu postei a Cifra certinha ORIGINAL da musica e o cifra club nao quer publicar

    • Diego Diego : Publicado en 17/09/2013 08:11

      Esta certinho cara

    • Lucasradical7 Lucasradical7: Publicado en 02/10/2013 13:40

      n ta certo n

  • sofia.pedroso.58 sofia.pedroso.58: Publicado en 11/08/2013 13:44

    Alguém corrija esse solo

    • DÔRG DÔRG: Publicado en 20/09/2013 11:31

      Concordo!

Exhibiendo 11 de 99 comentarios Mostrar más ver todo »
Composición: System Of A Down
Ese no és el compositor? Avisenos.
Contribución: Scorpionose Correcciónes: bruna.domo , guilherme_penno e mais 24 »
  1. Sweet Child O' Mine - Guns N' Roses mantiene 2.706 exhibiciones
  2. Wonderwall - Oasis mantiene 2.170 exhibiciones
  3. Hey Jude - The Beatles mantiene 1.953 exhibiciones
  4. Nothing Else Matters - Metallica mantiene 1.730 exhibiciones
  5. Stairway To Heaven - Led Zeppelin mantiene 1.609 exhibiciones
  6. Wake Me Up - Avicii mantiene 1.531 exhibiciones
  7. When I Was Your Man - Bruno Mars mantiene 1.476 exhibiciones
  8. More Than Words - Extreme mantiene 1.368 exhibiciones
  9. Get Lucky - Daft Punk mantiene 1.306 exhibiciones
  10. Don't Let Me Down - The Beatles mantiene 1.253 exhibiciones
  1. The Beatles- mantiene 23.977 exhibiciones
  2. Metallica- mantiene 7.903 exhibiciones
  3. Guns N' Roses- mantiene 7.249 exhibiciones
  4. Nirvana- mantiene 6.045 exhibiciones
  5. One Direction- mantiene 5.535 exhibiciones
  6. Red Hot Chili Peppers- mantiene 5.460 exhibiciones
  7. Coldplay- mantiene 4.717 exhibiciones
  8. Bruno Mars- mantiene 4.601 exhibiciones
  9. Oasis- mantiene 4.313 exhibiciones
  10. Green Day- mantiene 3.276 exhibiciones
Exhibir acordes »

Acordes y tabs

Aprenda

Studio Sol

©1996 - 2014 Cifra Club · el primero, mayor y más accedido del Brasil · 329 mil músicas · 6.0 millones de personas registradas

publicidad
cerrar