System Of a Down

Question

2.339 reproducciones
Tono: G
Afinações:

Violão: E B G D A
Guitarra: D A F C G C

Intro: (9/16) - Violão


E|-0-----------------------|-0-----------------------|
B|---0----------0----------|---0----------0----------|
G|-----12----12---12----12-|-----12----12---12----12-|
D|--------10---------12----|--------10---------10----| 3x
A|-------------------------|-------------------------|
E|-------------------------|-------------------------|



E|-0-----------------------|-0-----------0-----------|
B|---0----------0----------|---0---------0-----------|
G|-----12----12---12----12-|-----12------12----------| 1x
D|--------10---------10----|--------10/--9-----------|
A|-------------------------|-------------10----------|
E|-------------------------|-------------12----------|


Riff Pincipal: 5/8

Violão

E|-0------0-----0---0-|-0------0-----0---0-|
B|-0------0-----0---0-|-0------0-----0---0-|
G|-4------4-----4---4-|-4------4-----4---4-| 4x
D|-2------2-----2---2-|-2------2-----2---2-|
A|-2------2-----2---2-|-2------2-----2---2-|
E|-0------0-----0---0-|-0------0-----0---0-|


Guitarra

C|----------------------|----------------------|
A|----------------------|----------------------|
F|----------------------|----------------------| 2x
C|-4---11-9---7-7-6-9-7-|-4---11-9---7-7-6-9-7-|
G|-4---11-9---7-7-6-9-7-|-4---11-9---7-7-6-9-7-|
C|-4---11-9---7-7-6-9-7-|-4---11-9---7-7-6-9-7-|



C|----------------------|----------------------|
A|----------------------|----------------------|
F|----------------------|----------------------| 2x
C|-4-4-11-9-9-7-7-6-9-7-|-4-4-11-9-9-7-7-6-9-7-|
G|-4-4-11-9-9-7-7-6-9-7-|-4-4-11-9-9-7-7-6-9-7-|
C|-4-4-11-9-9-7-7-6-9-7-|-4-4-11-9-9-7-7-6-9-7-|

P.M. . .  . . . . . . .   . . .  . . . . . . .

Verso: 9/16

Guitarra

E|-0-----------------------|-0-----------------------|
B|---0----------0----------|---0----------0----------|
G|-----12----12---12----12-|-----12----12---12----12-| 3x
D|--------10---------12----|--------10---------10----|
A|-------------------------|-------------------------|
E|-------------------------|-------------------------|


6/8

E|----------0------|----------0------|
B|--------0---0----|--------0---0----|
G|-----------------|-----------------|
D|----10--------10-|----10--------10-|
A|-12--------------|-12--------------|
E|-----------------|-----------------|



E|-0-----------------------|-0-----------------------|
B|---0----------0----------|---0----------0----------|
G|-----12----12---12----12-|-----12----12---12----12-| 2x
D|--------10---------12----|--------10---------10----|
A|-------------------------|-------------------------|
E|-------------------------|-------------------------|


6/8

E|----------0------|----------0------|
B|--------0---0----|--------0---0----|
G|-----------------|-----------------| 2x
D|----10--------10-|----10--------10-|
A|-12--------------|-12--------------|
E|-----------------|-----------------|


Guitarra (clean)

C|-------------------|-------------------|
A|-------------------|-------------------|
F|-------------------|-------------------| 2x
C|-----2-4-2---2-----|-----2-4-2---2-----|
G|---4-------4---4-5-|---4-------4---4-5-|
C|-4-----------------|-4-----------------|



C|---------------------------------|
A|---------------------------------|
F|---------------------------------|
C|-----2-4-2---2-------------------|
G|---4-------4---4-5---2/9-----2/9-|
C|-4-------------------------------|


Pré-Refrão (Violão):


E|-3-----3-----3-----3-----2-----2-----2-----2-----|  
B|-0-----0-----0-----0-----0-----0-----0-----0-----|  
G|-0-----0-----0-----0-----0-----0-----0-----0-----| 2x
D|-2-----2-----2-----2-----2-----2-----2-----2-----|
A|-------------------------------------------------|                                  
E|-------------------------------------------------|


Refrão:

Guitarra

C|---------------------------------------------------|
A|---------------------------------------------------|                                                    
F|---------------------------------------------------| 2x
C|---------6p4---------6p4-----------6p4---------6p4-|  
G|-4---4-4-----4---4-4-------4---4-4-----4---4-4-----|      
C|-4---4-4-----4---4 4-------4---4-4-----4---4-4-----|

P.M.   . .         . .           . .         . .


C|--------------------------------------------------------|
A|--------------------------------------------------------|
F|--------------------------------------------------------|
C|---------6p4---------6p4-----------11p9---12p9---11p9---|
G|-4---4-4-----4---4-4-------9---9-9------9------9------9-|
C|-4---4-4-----4---4-4-------9---9-9----------------------|

P.M:   . .         . .


C|---------------------|
A|---------------------|
F|---------------------|
C|-9-9-9-9-9-9-9-9-9-9-|
G|-9-9-9-9-9-9-9-9-9-9-| 
C|-9-9-9-9-9-9-9-9-9-9-|


Violão

E|-5######/7######\5###/7###\3############/5###/7###/8-############/-|
B|-7######/8######\7###/8###\5############/7###/8###/10############/-|
G|-------------------------------------------------------------------| 2x
D|-------------------------------------------------------------------|
A|-------------------------------------------------------------------|
E|-------------------------------------------------------------------|



E|-15############-|
B|-17############-|
G|----------------| 1x
D|----------------|
A|----------------|
E|----------------|


Riff Principal: 5/8

Violão

E|-0------0-----0---0-|-0------0-----0---0-|
B|-0------0-----0---0-|-0------0-----0---0-|
G|-4------4-----4---4-|-4------4-----4---4-| 
D|-2------2-----2---2-|-2------2-----2---2-|
A|-2------2-----2---2-|-2------2-----2---2-|
E|-0------0-----0---0-|-0------0-----0---0-|


Guitarra

C|----------------------|----------------------|
A|----------------------|----------------------|
F|----------------------|----------------------|
C|-4---11-9---7-7-6-9-7-|-4---11-9---7-7-6-9-7-|
G|-4---11-9---7-7-6-9-7-|-4---11-9---7-7-6-9-7-|
C|-4---11-9---7-7-6-9-7-|-4---11-9---7-7-6-9-7-|


(Verso: 9/16)

(Pré-Refrão)

(Refrão)

Riff Principal: 5/8

Violão

E|-0------0-----0---0-|-0------0-----0---0-|
B|-0------0-----0---0-|-0------0-----0---0-|
G|-4------4-----4---4-|-4------4-----4---4-| 4x
D|-2------2-----2---2-|-2------2-----2---2-|
A|-2------2-----2---2-|-2------2-----2---2-|
E|-0------0-----0---0-|-0------0-----0---0-|


Guitarra

C|----------------------|----------------------|
A|----------------------|----------------------| 2x
F|----------------------|----------------------|
C|-4---11-9---7-7-6-9-7-|-4---11-9---7-7-6-9-7-|
G|-4---11-9---7-7-6-9-7-|-4---11-9---7-7-6-9-7-|
C|-4---11-9---7-7-6-9-7-|-4---11-9---7-7-6-9-7-|



C|----------------------|----------------------|
A|----------------------|----------------------| 2x
F|----------------------|----------------------|
C|-4-4-11-9-9-7-7-6-9-7-|-4-4-11-9-9-7-7-6-9-7-|
G|-4-4-11-9-9-7-7-6-9-7-|-4-4-11-9-9-7-7-6-9-7-|
C|-4-4-11-9-9-7-7-6-9-7-|-4-4-11-9-9-7-7-6-9-7-|

P.M. . .  . . . . . . .   . . .  . . . . . . .


C|-------------------------------------------|
A|-------------------------------------------|
F|-------------------------------------------| 3x
C|-------------------------------------------|
G|-------------------------------------------|
C|-4-4-4-4-11-11-9-9-9-9-7-7-7-7-9-9-6-6-7-7-|

P.M. . . . . . . . . . . . . . . . . . . . .


C|---------------------------------------|
A|---------------------------------------|
F|---------------------------------------| 1x
C|---------------------------------------|
G|-----------------------------------6\7-|
C|-4-4-4-4-11-11-9-9-9-9-7-7-7-7-9-9-6\7-|

P.M. . . . . . . . . . . . . . . . .


C|----------------------|----------------------|
A|----------------------|----------------------|
F|----------------------|----------------------| 2x
C|-4---11-9---7-7-6-9-7-|-4---11-9---7-7-6-9-7-|
G|-4---11-9---7-7-6-9-7-|-4---11-9---7-7-6-9-7-|
C|-4---11-9---7-7-6-9-7-|-4---11-9---7-7-6-9-7-|


Breakdown: 4/4

Guitarra 

C|-------------------------|---------------------------|
A|-------------------------|---------------------------|
F|-------------------------|---------------------------| 4x
C|-------------------------|---------------------------|
G|-------------------------|---------------------------|
C|-4---4-4-4-0-4---4-4-4-0-|-4---4-4-4-0-4---4-4-4-0-4-|

P.M.   . . .   .   . . . .   .   . . . . .   . . . . .


C|-------------------------|---------------------------|
A|-------------------------|---------------------------|
F|-------------------------|---------------------------| 1x
C|-------------------------|---------------------------|
G|-------------------------|---------------------------|
C|-9-9-9-9-9-9-9-9-9-9-9-9-|-9-9-9-9-9-9-9-9-9-9-9-9-9-|

P.M. . . . . . . .  . . .  . . . . . . . . . . . . . .


C|-------------------------|---------------------------|
A|-------------------------|---------------------------|
F|-------------------------|---------------------------| 3x
C|-------------------------|---------------------------|
G|-------------------------|---------------------------|
C|-4---4-4-4-0-4---4-4-4-0-|-4---4-4-4-0-4---4-4-4-0-4-|

P.M.   . . .   .   . . . .   .   . . . . .   . . . . .


C|-------------------------|---------------------------|
A|-------------------------|---------------------------|
F|-------------------------|---------------------------| 2x
C|-------------------------|---------------------------|
G|-------------------------|---------------------------|
C|-9---9-9-9-9---9-9-9-9-9-|-4---4-4-4-0-4---4-4-4-0-4-|


Violão

E|-5#######/7#######\5####/7####\3################/5####/7####/8-################/-|
B|-7#######/8#######\7####/8####\5################/7####/8####/10################/-|
G|---------------------------------------------------------------------------------| 2x
D|---------------------------------------------------------------------------------|
A|---------------------------------------------------------------------------------|
E|---------------------------------------------------------------------------------|



E|-15################-|
B|-17################-|
G|--------------------| 1x
D|--------------------|
A|--------------------|
E|--------------------|


Riff Principal: 5/8

Violão

E|-0------0-----0---0-|-0------0-----0---0-|
B|-0------0-----0---0-|-0------0-----0---0-|
G|-4------4-----4---4-|-4------4-----4---4-|
D|-2------2-----2---2-|-2------2-----2---2-| 2x
A|-2------2-----2---2-|-2------2-----2---2-|
E|-0------0-----0---0-|-0------0-----0---0-|


Guitarra

C|----------------------|----------------------|
A|----------------------|----------------------|
F|----------------------|----------------------| 2x
C|-4---11-9---7-7-6-9-7-|-4---11-9---7-7-6-9-7-|
G|-4---11-9---7-7-6-9-7-|-4---11-9---7-7-6-9-7-|
C|-4---11-9---7-7-6-9-7-|-4---11-9---7-7-6-9-7-|


Intro: (9/16) - Violão


E|-0-----------------------|-0-----------------------|
B|---0----------0----------|---0----------0----------|
G|-----12----12---12----12-|-----12----12---12----12-| 1x
D|--------10---------12----|--------10---------10----|
A|-------------------------|-------------------------|
E|-------------------------|-------------------------|



E|-0-----------------------|-0-----------0-----------|
B|---0----------0----------|---0---------0-----------|
G|-----12----12---12----12-|-----12------12----------| 1x
D|--------10---------10----|--------10/--9-----------|
A|-------------------------|-------------10----------|
E|-------------------------|-------------12----------|


Riff Principal: 5/8

Violão 

E|-0------0-----0---0-|-0------0-----0---0-|
B|-0------0-----0---0-|-0------0-----0---0-|
G|-4------4-----4---4-|-4------4-----4---4-|
D|-2------2-----2---2-|-2------2-----2---2-|
A|-2------2-----2---2-|-2------2-----2---2-|
E|-0------0-----0---0-|-0------0-----0---0-|


Guitarra

C|----------------------|----------------------|
A|----------------------|----------------------|
F|----------------------|----------------------|
C|-4---11-9---7-7-6-9-7-|-4---11-9---7-7-6-9-7-|
G|-4---11-9---7-7-6-9-7-|-4---11-9---7-7-6-9-7-|
C|-4---11-9---7-7-6-9-7-|-4---11-9---7-7-6-9-7-|
    Composición: Serj TankianColaboración y revision:
    • Nicolas
    • Harry

    Comentarios 4

    • daronmaluko daronmaluko: Publicado en 14/09/2012 23:42

      ta errado pah

    • mr.wagner mr.wagner: Publicado en 10/08/2012 17:06

      Ei galera se quiserem mais video aulas de system me add no face e entrem no meu grupo, tem que ficar mais democratico essa merda!

      • Davi Davi: Publicado en 13/03/2014 20:23

        qual é o seu face

      • andrew.resende andrew.resende: Publicado en 04/04/2014 17:12

        qual e seu face

    ¿conseguiste tocar?

    • p.pierre
    • luclui
    • joaopaulo11
    • georgin
    • jplustosa
    • oitavo
    Guilherme Krol Lins22.430 visualizações
      ver cover de otras canciones »
      0:00 / 0:00

      Capitulos

        1 versão de guitarradificuldadreproduccionescontribuición y correción
        1 versão de guitarra eléctricadificuldadreproduccionescontribuición y correción
        1 versão de cavacodificuldadreproduccionescontribuición y correción
        1 versão de tecladodificuldadreproduccionescontribuición y correción
        1 versão de contrabajoreproduccionescontribuición y correción
        play/pausefechar subir/bajar velocidad
        6ª cuerda E5ª cuerda A4ª cuerda D3ª cuerda G2ª cuerda B1ª cuerda E
          acordes
          publicidad
          cerrar
          ok