Interstate love song

Stone Temple Pilots

 Stone Temple Pilots
Tono: A
		
 -------
| INTRO |
 -------

  C#m   E    A    G#   A    E    A    G#   A    E

e|-4----0----0----4----5----0----0----4----5----0--
B|-5----0----2----4----5----0----2----4----5----0--
G|-6----1----2----5----6----1----2----5----6----1--
D|-6----2----2----6----7----2----2----6----7----2--
A|-4----2----0----6----7----2----0----6----7----2--
E|------0----4----5----0----0----4----5----0----0--



e|-------------------------------------------------
B|--------------------------------------4-4h5r4----
G|--4/6--4-4/6/4----------------------5---------6--
D|---------------6-6/4/2-2h4r2--4-4/6--------------
A|-------------------------------------------------
E|-------------------------------------------------


 ------
| RIFF |
 ------


e|--0----0--0-----------0--0--0--0---0--0--0-------
B|--2/3--2--0--0------0----0--0--0---0--0--0-------
G|-------------2--1h2------1--2--4---1--2--4-------
D|-------------------------2--4--6---2--4--6-------
A|-------------------------2--0--7---2--0--7-------
E|-------------------------0--0--0---0--0--0-------


 -------
| VERSO |
 -------


e|-x----x----x----x----0---------------------------
B|-5----4----2----2----2---------------------------
G|-6----5----1----1----2---------------------------
D|-6----6----2----2----0---------------------------
A|-4----3----2----1----0---------------------------
E|-------------------------------------------------


 --------
| REFRÃO |
 --------

  C#m   E    A    G#   A    E    A    G#   A    E

e|-4----0----0----4----5----0----0----4----5----0--
B|-5----0----2----4----5----0----2----4----5----0--
G|-6----1----2----5----6----1----2----5----6----1--
D|-6----2----2----6----7----2----2----6----7----2--
A|-4----2----0----6----7----2----0----6----7----2--
E|------0----4----5----0----0----4----5----0----0--


 -------
| LETRA |
 -------

Waiting on a Sunday Afternoon
For what I read between the lines
Your lies
Feeling like a hand in rusted shame
so do you laugh or does it cry?
Reply

leaving on a southern train
only yesterday you lied
promises of what I seem to be
only watched the time go by
all of these things you said to me

Breathing is the hardest thing to do
for all I've said and all that's dead for you
you lied
goodbye

Comentarios 2

  • Lucas Lucas: Publicado en 17/07/2014 20:32

    temos que entender uma coisa, cifra club so posta video aula de musica modinha, aff pqp, as bandas mais dahora nao tem video aula... :c

  • niuulook niuulook: Publicado en 14/11/2013 09:51

    Video aula cade ?

Composición: Camus Celli / Edgard Scandurra / Robert DeLeo / Scott Weiland
Ese no és el compositor? Avisenos.
Contribución: w Correcciónes: BrunoImbrizi e mais 1 »
Exhibir acordes »
publicidad
cerrar