Tono: G
		
[Intro]

e|----------------------|-----------------------------------
B|----------------------|-----------------------------------
G|----------------------|-------------------------repeat----
D|3-0-0--0-3-0-0----(4x)|-6-7-10--7-6-3--(4x)---------------
A|3-0-0--0-3-0-0--------|-6-7-10--7-6-3---------------------
E|3-0-0--0-3-0-0--------|-6-7-10--7-6-3---------------------






e|-------------------|--------------------------------------
B|-------------------|--------------------------------------
G|-------------------|--------------------------------------
D|7-6-5-4-3----------|-10-12-12-0-------------- ----- ------
A|7-6-5-4-3----------|-10-12-12-0---------------------------
E|7-6-5-4-3---------- -10-12-12-0---------------------------





e|10-9-8-7-6-5-4-3------------------------------------------
B|10-9-8-7-6-5-4-3------------------------------------------
G|10-9-8-7-6-5-4-3------------------------------------------
D|-----------------------------Intro-(4x)-------------------
A|----------------------------------------------------------
E|----------------------------------------------------------


Solo (Wah-Wah):

   -------10------------------------------------------------13--------------------------
   -13b------13--10---10--13----------------------------------------10-----------
   ----------------------------------12--10-----0--12--------------12------12-------
   --------------------------------------------12-----------------------------------------
   ----------------------------------------------------------------------------------------
   ----------------------------------------------------------------------------------------

    

   ---------------------------------------------------------------------------------------------
   -----------------------------------------------12-------------------------------------------
   -12p10------10------10--12b-----10--------10b--------10--12--10--12--10--
   -----------12------12----------------------------------------------------------------------
   -----------------------------------------------------------------------------------------------
   -----------------------------------------------------------------------------------------------

    

   -----------------------------------------------------------------------------
   -12------10--------------------12b-----------------12b----------------
   ------10-------------------------14b-------14b----14b----------------
   ------------------------------------------------------------------------------
   ----------------10---8--10---------------------------------------------------
   -----------------------------------------------------------------------------

    

   ------------------------17b----17--16--15--13--------17--15---13-------
   -12--13--15b-----------------------------------------------------15---------
   -------------------0--0------------------------------0--0-----------------------
   -----------------------------------------------------------------------------------
   -----------------------------------------------------------------------------------
   -----------------------------------------------------------------------------------

    

   -----------------------------13b---------------------------------------------------
   -----------15b--------15-------10-----------------------------------------------
   -0--0--0-----------------------------12p10---------------10h12/14----------
   -------------------------------------------------12--10h12---------------------
   -------------------------------------------------------------------------------------
   -------------------------------------------------------------------------------------

    

   ------------------------------10------------13p10---------13p10---------13p10---
   -------------------------13b------13--10---------13p10---------13p10----------
   -14p13p12\10------------------------------------------------------------------------
   ---------------------12-------------------------------------------------------------------
   --------------------------------------------------------------------------------------------
   --------------------------------------------------------------------------------------------

    

   ----------13p10---------13b---------------------------------------------------
   -13p10---------13p10-------9/10--9-----------------------13b-----------
   ----------------------------------------------12p10-----------------------------
   --------------------------------------------------------12--0----------------------
   -------------------------------------------------------------------------------------
   ------------------------------------------------------------------------------------

 
dai toca a intro de novo, canta mais uma vez e acaba
   

Comentarios 0

Composición: Camus Celli / Edgard Scandurra / Robert DeLeo / Scott Weiland
Ese no és el compositor? Avisenos.
Contribución: *Filipe*
Consigo tocarSin embargo, para tocar esta canción. ¡Sé el primero!
    Aún no puedo reproducir
    Exhibir acordes »
    publicidad
    cerrar