Stone Sour

Bother

1.042 reproducciones
Tono: F#
Versão 1
-======-

Aquele RIFF da Intro

   Ebm7
E|-6----6-------------------------------------------------------------|
B|-6----6-----7h6----------------------------------------------------|
G|-8----6------------8h6---------------------------------------------|
D|-6----6-------------------------------------------------------------|
A|-7----6-------------------------------------------------------------|
E|-6----6-------------------------------------------------------------|



Verso:


Ebm7|%|Db|Ebm7 2x


Refrão:


Ebm7|Db|Ebm7|Bb


Ebm7|Db|B|Db

Repete a Intro

Verso

Outro:


Ebm7|B/D#|B|Db


Refrão


Outra Versão:

Stone Sour - Bother

[Essa musica pode ser tocada na afinacao normal E]


-Riff Corey-


            D
   ---3-----2------3-2---0----------------
   ---3-----3---------------3-------------
   ---0-----2-----------------------------
   ---------0------------------2----------
   ---2-----------------------------------
   ---------------------------------------


             D
   --7-------2----------------------------
   --0-------3----------------------------
   --0-------2----------------------------
   ----------0----------------------------
   ---------------------------------------
   ---------------------------------------

_______________________________________________________








Versão 2
-======-


E|--------|----------------------|
B|-5/7----|---6h7p6--------7-----|
G|-6/8--6-|--------8-6-----8--6--|
D|-6/8--6-|----------------8--6--| last part 3 times
A|-4/6--4-|------------6---6--6--|
E|--------|----------------------|

   ^ You can slide instead of hammer on if its easier, it sounds close
Verses:

E|---------6------|---|                   |-------------------|
B|-7--6----7--6---|---|                   |-7-----6h7p6-------|
G|-8--6----8--6---|---|                   |-8--6--------8-6---|
D|-8--6----8--6---|-4-|last chord 7 times |-8--6--------------|
A|-6--6----6--6---|-4-|                   |-6--4------------6-|
E|----------------|-2-|                   |-------------------|


E|---------6------|---|                   |--------------------
B|-7--6----7--6---|---|                   |--------4--4---4--4--
G|-8--6----8--6---|---|                   |--------6--6---6--6--
D|-8--6----8--6---|-4-|last chord 7 times |-4-4-4--6--6---6--6--
A|-6--6----6--6---|-4-|                   |-4-4-4--4--4---4--4--
E|----------------|-2-|                   |-2-2-2--------------

Chorus:

E|-----------------|-------------|
B|-7-------------6-|-------------|
G|-8---------------|-6-----------|
D|-8---------------|-6-----------|
A|-6-----------6---|-4-----------|
E|-----------------|-------------|


E|----------------|-------------------------|
B|--7-------------|--6--------------------7-|
G|--8-------------|--7---7--7---8--8--7---8-|
D|--8-------------|--8---8--8---8--8--8---8-|
A|--6-------------|--8---8--8---8--8--8---6-|
E|----------------|--6---6--6---6--6--6-----|


E|------------------|-----------|
B|--7--7-------7----|--6--------|
G|--8--8-------8----|--6--------|
D|--8--8-------8----|--6--------|
A|--6--6------------|--4--------|
E|------------------|-----------|


E|---|   |---|
B|---|   |---|
G|---|   |---|
D|-4-|x7 |-6-|x7
A|-4-|   |-6-|
E|-2-|   |-4-|
Bridge:
E|---|    |---|   |---|   |---|
B|-7-|    |---|   |---|   |---|
G|-8-|    |-7-|   |-3-|   |-6-|
D|-8-|x7- |-8-|x7 |-4-|x7 |-6-|x7
A|-6-|    |-8-|   |-4-|   |-4-|
E|---|    |-6-|   |-2-|   |---|
    Composición: Corey TaylorColaboración y revision:
    • meunomeebob
    • Paulo

    ¿conseguiste tocar?

    • farinhabox
    • Lucas Flevcc
    • arielsliphero
    • Theeus !
    • thiago
    • cobranegra

    covers

    ¡Grave un vídeo tocando Bother y envie para nosotros!

    Ex.: http://www.youtube.com/watch?v=0IvSvIwGdwk
    ver cover de otras canciones »
    0:00 / 0:00

    Capitulos

      2 versões de contrabajoreproduccionescontribuición y correción
      4 versões de Guitar Proformatodownloadscontribuición
      play/pausefechar subir/bajar velocidad
      6ª cuerda E5ª cuerda A4ª cuerda D3ª cuerda G2ª cuerda B1ª cuerda E
        acordes
        publicidad
        cerrar
        ok