Better Than Drugs

Skillet

 Skillet
Tono: G
		
Tabed by Aaron Graves

1st intro


E  00--0---0--0------------------------------| REPEAT
A  --87-87--87-7777--------------------------|
D  ------------------------------------------|
G  ------------------------------------------|
B  ------------------------------------------|
E  ------------------------------------------|


2nd intro


E  -3-00-2-00-3-00-5-00-8777---00--00--00--00--32-| REPEAT
A  -------------------------8-----7---3---5----32-|
D  --------------------------------------------32-|
G  -----------------------------------------------|
B  -----------------------------------------------|
E  -----------------------------------------------|


 1st VERSE


E 8-8-8-8-8-8-8-8-8-8-8-8-8-8-8- 10-10-10-10-10-10-10-10-|
A 8-8-8-8-8-8-8-8-8-8-8-8-8-8-8--10-10-10-10-10-10-10-10-|
D 8-8-8-8-8-8-8-8-8-8-8-8-8-8-8--10-10-10-10-10-10-10-10-|
G -------------------------------------------------------|
B -------------------------------------------------------|
E -------------------------------------------------------|


part 2 of 1st verse


E 00-2-00-8-7-5-7-3-5--REPEAT AND END ON 5555---5555-|
A 00-2-00-8-7-5-7-3-5--                  5555---5555-|
D 00-2-00-8-7-5-7-3-5--                  5555---5555-|
G ---------------------                  ------------|
B ---------------------                  ------------|
E ---------------------                  ------------|


i would do the verse but i don't feel like writing it right now...
maybe some other time..
cause right now i just wanna jam...
but if you REALY NEED IT!!!!??..
just e-mail me at A*

Comentarios 0

Composición: Hooker / Paul Ebersold / Philipp Schmid
Ese no és el compositor? Avisenos.
Consigo tocarSin embargo, para tocar esta canción. ¡Sé el primero!
    Aún no puedo reproducir
    Exhibir acordes »
    publicidad
    cerrar