Gone Too Soon

Simple Plan

 Simple Plan
Tono: D
		
Intro

E|-------0-----------0----------------|
B|--3----------3----------3-----3-2---|
G|-----2----------2----------2--------|
D|--0---------------------------------|
A|------------------------2-----------|
E|-------------3----------------------|


Hey there now...            ...unexpected
             You changed my life...      ...unprotected

E|-------0-----------0-----------0-----------2---|
B|--3----------3----------3------------3---------|
G|-----2----------2-----------2-----------2------|   (2x)
D|--0--------------------------------------------|
A|------------------------2----------------------|
E|-------------3-----------------------3---------|


Pré Refrão:
D
Hey there now
G
Where'd you go
Bm                         A
You left me here so unexpected
D
You changed my life
G
I hope you know
Bm
Cause now I'm lost
A
So unprotected

G        Bm            A
In a blink of an eye

E|--------------------------------------|
B|------3----------------------3--------|
G|----2----------------------2----------|
D|--------------------------------------|
A|--------------------------------------|
E|--3----------------------3------------|


G        Bm            A
I never got to say goodbye

Refrão:
D
Like a shooting star
G
Flyin' across the room
Bm
So fast so far
A
You were gone too soon

D
You're part of me
G
And I'll never be
Bm                        A
The same here without you
G
You were gone too soon

D
You were always there
G
And like shining light
Bm
On my darkest days
A
You were there to guide me
D
Oh I miss you now
G
I wish you could see
Bm
Just how much your memory
A
Will always mean to me

G         Bm        A
In a blink of an eye
G              Bm           A
I never got to say goodbye

Refrão:
D
Like a shooting star
G
Flyin' across the room
Bm
So fast so far
A
You were gone too soon

D
You're part of me
G
And I'll never be
Bm                        A
The same here without you
G
You were gone too soon

G                  Bm
Shine on! shine on!
A
To a better place
G                  Bm
Shine on! shine on!
A
Will never be the same

Refrão:
D
Like a shooting star
G
Flyin' across the room
Bm
So fast so far
A
You were gone too soon

D
You're part of me
G
And I'll never be
Bm                        A
The same here without you
G
You were gone too soon

G              Bm
Shine on! shine on!
A
You were gone too soon
G              Bm
Shine on! shine on!
A
You were gone too soon
G              Bm
Shine on! shine on!
A
You were gone too soon
1.386 exhibiciónes

Comentarios 1

  • mateus mateus: Publicado en 13/04/2012 21:22

    fica melhor se utilizar o D e o A na 9,

Composición: Francis Hime / Jay Johnson / Max Lengert / Simple Plan
Ese no és el compositor? Avisenos.
Contribución: Meg Correcciónes: sdoti »
Exhibir acordes »
publicidad
cerrar