Sepultura

Territory

511 reproducciones
Tono: C
Drum intro

|----------------------|
|----------------------|
|----------------------|
|----------------------|
|----------------------|
|----------------------|


riff 1

|-------------------------------------------------------------------------|
|-------------------------------------------------------------------------|
|-------------------------------------------------------------------------|
|-------------------------------------------------------------------------|
|-11\10-10-11\10-10-11\10-10-11\10-10-11\10-10-11\10-10-11\10-10-11\10-10-|
|--9\8--8---9\8--8---9\8--8---9\8---8--9\8--8---9\8--8---9\8--8---9\8--8--|


riff2
let ring......................................................

|--------------------------------------------------------------------|
|--------------------------------------------------------------------|
|--------------------------------------------------------------------|
|--------------------------------------------------------------------|
|-3------------------------------------------------------------------|
|-1-----------------------------------------------------------000000-|


riff3                                           
pm. .  . . ... .  . . ... .  . . ... .  . . ...

|-----------------------------------------------| |
|-----------------------------------------------| |
|-----------------------------------------------|.|
|-----------------------------------------------|.|
|-----------------------------------------------| |
|-0-0--0-0-000-0--0-0-000-0--0-0-000-0--0-0-000-| |


Chorus


|-------------------0-------------------------|
|-------------------0-------------------------|
|---------------------------------------------|
|----------------2----------------------------|
|-6-\3-3--6-\3-3-2-------6-\3-3--6-\3-3-/8----|
|-4-\1-1--4-\1-1-0-------4-\1-1--4-\1-1-/6----|


song riff
pm. . . .

|---------|
|---------|
|---------|
|---------|
|---------|
|-4-1-0-0-|



riff4
pm.  ....  . .  ....  . .  ....  . .  ....

|-------------------------------------------| |
|-------------------------------------------| |
|-------------------------------------------|.|
|-------------------------------------------|.|
|-------------------------------------------| |
|-0--0000--0-0--0000--0-0--0000--0-0--0000--| |


riff5
pm    . .       . . . .     . .       . . . .

|----------------------------------------------| |
|----------------------------------------------| |
|----------------------------------------------|.|
|-9-9-----9-9-9---------9-9-----9-9-9----------|.|
|-7-7-----7-7-7---------7-7-----7-7-7----------| |
|-----0-0-------0-0-0-0-----0-0-------0-0-0-0--| |


..if I can remember it right the next one goes like this....

riff6


|---------------------------|     |--------------------------|
|---------------------------|     |--------------------------|
|---------------------------|  or |--------------------------|
|---------------------------|     |-2-------------2----------|
|-3-----5--6----3-----5--6--|     |-2-----3--5----2----3--5--|
|-1-----3--4----1-----3--4--|     |-0-----1--3----0----1--3--|


riff6b

|------------------|
|------------------|
|------------------|
|------------------|
|--h-h-h-h-h-h-h-h-|
|-0101013434344545-|


..well that's about it....
..hope it helps....................

-==Versão 2==-

Tune down to D (low-high : D G C F A d) = (tune down 1 step)


Drums intro

Riff 1				Riff 2			

d||----------||			d||-----||
A||----------||			A||-----||
F||----------||			F||-----||
C||--9\8--8--||			C||--2--||
G||--7\6--6--||			G||--2--||
D||----------||			D||--0--||


Riff 3

d||-----------------------------------------------||
A||-----------------------------------------------||
F||-----------------------------------------------||
C||-----------------------------------------------||
G||-----------------------------------------------||
D||-0-0--0-0-000-0--0-0-000-0--0-0-000-0--0-0-000-||
P.M.|--------------------------------------------|


Riff 4 - (Chorus)

d||-------------------0-------------------------||
A||-------------------0-------------------------||
F||---------------------------------------------||
C||----------------2----------------------------||
G||-6-\3-3--6-\3-3-2-------6-\3-3--6-\3-3-/7----||
D||-4-\1-1--4-\1-1-0-------4-\1-1--4-\1-1-/5----||


Riff 5 - (Song Riff)		Riff 6

d||---------||			d||-------------------------------------------||
A||---------||			A||-------------------------------------------||
F||---------||			F||-------------------------------------------||
C||---------||			C||-------------------------------------------||
G||---------||			G||-------------------------------------------||
D||-4-1-0-0-||			D||-0--0000--0-0--0000--0-0--0000--0-0--0000--||
             			P.M.|---------------------------------------|


Riff 7

d||---------------------------------------------||
A||---------------------------------------------||
F||---------------------------------------------||
C||-8-8-----8-8-8---------8-8-----8-8-8---------||
G||-6-6-----6-6-6---------6-6-----6-6-6---------||
D||-----0-0-------0-0-0-0-----0-0-------0-0-0-0-||

P.M.   |---|     |-------|   |---|     |-------|


Riff 8			Riff 10

d||-----------||	d||--------------------------||
A||-----------||	A||--------------------------||
F||-----------||	F||--------------------------||
C||-----------||	C||--9-6----9-7----9-6----9--||
G||--4--5--8--||	G||--7-4----7-5----7-4----7--||
D||--2--3--6--||	D||--------------------------||


Riff 9

d||------------------------------------------------------------------------------------------------||
A||------------------------------------------------------------------------------------------------||
F||------------------------------------------------------------------------------------------------||
C||-------------------------------------------------------------------------------------8---9--10--||
G||-/3----------/3----------/3----------/3----------/3----------/3----------/3----------6---7---8--||
D||-/1--0--0--0-/1--0--0--0-/1--0--0--0-/1--0--0--0-/1--0--0--0-/1--0--0--0-/1--0--0--0------------||
P.M.   |-------|   |-------|   |-------|   |-------|   |-------|   |-------|   |-------|


Riff 9*

d||----------------||
A||----------------||
F||----------------||
C||----------------||
G||-----------/3---||
D||---0--0--0-/1---||


================================================================================================
Text:

Unknown man
Speaks to the world
Sucking your trust
A trap in every world

War for territory
War for territory

Choice control
Behind propaganda
Poor information
To manage your anger

War for territory
War for territory

Dictators' speech
Blasting off your life
Rule to kill the urge
Dumb assholes' speech

Years of fighting
Teaching my son
To believe in that man
Racist human being
Shame and regret
Of the pride
You've once possessed

War for territory
War for territory

================================================================================================
Song Structure:

Drums intro	(00:00 to 00:07)

Riff 1 x 8	(00:07 to 00:14)

Riff 2 x 1

Riff 3

Riff 2 x 1	(00:28)

Riff 4 x 2	(00:38 to 00:51)

Song Riff:Riff 5 x 16	(00:51 to 1:04)

Chorus:Riff 4 x 2	(1:04 to 1:16)

Riff 6			(1:16 to 1: 23)

Song Riff:Riff 5 x 16	(1:23 to 1:35)

Chorus:Riff 4 x 2	(1:35 to 1:48)

Riff 2 x 1	(1:49)

Riff 7 x 2	(1:55 to 2:07)

Riff 8 x 4	(2:08 to 2:20)

Riff 7 x 2	(2:20 to 2:32)

Riff 9 x 2	(2:32 to 2:44)

Riff 10 x 2	(2:45 to 2:51)

Riff 9 x 1	(2:51 to 2:57)

Solo		(2:57 to 3:22)

Song Riff:Riff 5 x 16	(3:25 to 3:49)

Chorus:Riff 4 x 2	(3:50 to 4:01)

Riff 2 x 1	(4:02)

Riff 9* x 1	(4:14 to 4:46end)
    Composición: SepulturaColaboración y revision:
    • Taino from Hell

    Comentarios 9

    140 .
    140 cancelar

    ¿conseguiste tocar?

    • christian
    • Joao
    • balani
    • maggot_sic
    • josedavid.franciscocosta
    • Pedro
    • pedropequeno

    covers

    ¡Grave un vídeo tocando Territory y envie para nosotros!

    Ex.: http://www.youtube.com/watch?v=0IvSvIwGdwk
    ver cover de otras canciones »
    0:00 / 0:00

    Capitulos

      4 versões de contrabajo reproducciones contribuición y correción
      1 versão de batería reproducciones contribuición y correción
      3 versões de Guitar Proformatodownloadscontribuición
      play/pausefechar subir/bajar velocidad
      6ª cuerda E5ª cuerda A4ª cuerda D3ª cuerda G2ª cuerda B1ª cuerda E
        acordes
        publicidad
        cerrar
        ok