Ever-frost

Sentenced

 Sentenced
(B, F, B, C,)


Intro 1
|---------------------------------|
|---------------------------------|
|-4-4-4-4-4-4-4-4-2-2-2-2-2-2-2-2-|
|:--------------------------------|

Intro 2
|--------------------------------------------------|
|--------------------------------------------------|
|6-6-6-6-6-6-6-6-6-6-6—5-5-5-5-3-3-3-3-3-3-3-3-3-3-|
|:-------------------------------------------------|

Intro 3 x4
|-----------------------|-1 & 3-----|---2nd----|--4th---------|
|-----------------------|---------|-------|-------------------|
|-----------------------|---------|-------|-------------------|
|-7-7-7-7-7---7-7-7-7-7-|-2-4-3-5-|-1-2-0-|-2-3-2-1-----------|

Verse
|-----------------------------------------|
|-----------------------------------------|
|-----------------------------------------|
|-2-2-1-2-2-1-2-2-1-2-2-1-2—2-1-2-2-1-2-2-|x4 alternate between B and F

|-----------------------------------------------------------------|
|-----------------------------------------------------------------|
|-----------------------------------------------------------------|
|-3-3-3-3-3-3-3-3-1-1-1-1-1-1-1-1-1-7-7-7-7-7-7-7-7-5-5-5---5-5-5-|

Chorus x2
|-------------------------------------------|
|-------------------------------------------|
|6-6-6-6-6-6-------4-4-4-4-4-4—-------------|
|------------3-3-3-------------7-7-7-7-7-7--|

Intro 3 x1
Verse
Chorus x1

Interlude
|---------------------------|
|---------------------------|
|-5-5-5-5-5-5-5-5-5-5-5-5-5-|
|---------------------------|

Solo
|-------------------|
|-------------------|
|-------------------|
|-7-7-7-7-7-7-7-7/1-| x3

Intro 3 part 4


Solo x4 (on the last don’t slide)

Chorus x4

Outro
|-----------------------|
|-----------------------|
|-7-7-7-7-7-7-7-7-4-4-4-|
|-----------------------|
15 exhibiciónes

Comentarios 0

Consigo tocarSin embargo, para tocar esta canción. ¡Sé el primero!
    Aún no puedo reproducir
    publicidad
    cerrar