You And I

Scorpions

 Scorpions
Tono: C
Sintonización: Eb Ab Db Gb Bb Eb
		

Intro: C  E  Am  Dm  C  G
D#|-----------------------12~--10~--8~-----------|------------------------------|
A#|---10-13-12h13~--12-10---------------10---10~-|---------8-6~-----------------|
F#|-9--------------------------------------9-----|-----5-7------7--5-9~---------|
C#|----------------------------------------------|--/7------------------9-7-5~--|
G#|----------------------------------------------|------------------------------|
D#|----------------------------------------------|------------------------------|



(C Am Dm  G)
D#|---3--5--5--3--|
A#|---5--5--6--3--|
F#|---5--5--7--4--|
C#|---5--7--7--5--|
G#|---3--7--5--5--|
D#|------5-----3--|


C          Am Dm              G
I lose control because of you babe
C          Am Dm                   G
I lose control when you look at me like this
       C                  Am           Dm       G
there's something in your eyes that is saying tonight

          C
I'm not a child anymore.
         Am                   Dm           G
Life has opened the door to a new exciting life

Dm                           Em
It's all written down in your lifelines
Dm                           G
it's written down inside your heart

C      Am Dm          G
You and I just have a dream
C           Am           Dm
to find our love a place
                   G
where we can hide away

C      Am Dm        G
you and I were just made
C            Am        Dm
to love each other now
              G
forever and a day

(Intro)

C         Am  Dm             G
I lose control because of you babe
C         Am  Dm                G
I lose control when you look at me like this
        C                Am            Dm       G
there's something in your eyes that is saying tonight
       C                          Am
I'm so curious for more just like never before
      Dm       G
in my innocent life
Dm                            Em
It's all written down in your lifelines
Dm                            G
it's written down inside your heart

C      Am Dm          G
You and I just have a dream
C           Am           Dm
to find our love a place
                 G
where we can hide away

C      Am Dm        G
you and I were just made
C            Am        Dm
to love each other now
              G
forever and a day

Am           G      F
Time stands still
                           G
when days of innocence are falling for the night
Am                       G      F
I love you girl I always will
                           E
I swear I'm there for you till the day I die

*Repete Refrão... So que agora com todas as notas com um tom acima, então fica :

D     Bm Em          A
You and I just have a dream
D           Bm           Em
to find our love a place
                 A
where we can hide away

D      Bm Em        A
you and I were just made
D            Bm        Em
to love each other now
              A
forever and a day

( D  F#  Bm  Em  D  A )


D#|------------------------14~--12~--10~-----------|---------------------------------|
A#|----12-15-14h15~--14-12---------------12---12~--|---------10-8~-------------------|
F#|-11--------------------------------------11-----|-----7-9-------9--7-11~----------|
C#|------------------------------------------------|--/9--------------------11-9-7~--|
G#|------------------------------------------------|---------------------------------|
D#|------------------------------------------------|---------------------------------|

Comentarios 2

Composición: Chris Buseck / Klaus Meine / Rudolf Schenker / Tom Browne
Ese no és el compositor? Avisenos.
Contribución: Spitfire Correcciónes: Pablo e mais 1 »
Exhibir acordes »
publicidad
cerrar