Wind of Change

Scorpions

 Scorpions
Tono: C
		
Base do solo:
F Dm  F Dm  Am Dm Am G

Assobio da intro:
(guitarra 2 acustica)


E|-5-7-8--5-7-8-10-8--5-7-8--5-7-8-10-8--|
B|---------------------------------------|
G|---------------------------------------|
D|---------------------------------------|
A|---------------------------------------|
E|---------------------------------------|



E|-8-10-12-13-12-8-10--5-8-7-------------|
B|---------------------------------------|
G|---------------------------------------|
D|---------------------------------------|
A|---------------------------------------|
E|---------------------------------------

intro:
(guitarra 1 - electrica)

RIFF 1

E|---------------------------------------|
B|---------------------------------------|
G|-------------12~----10~----------------|
D|-9--------10-----11--------------------|
A|-8--10-12------------------------------|
E|-0-------------------------------------|

RIFF 2

E|---------------------------------------|
B|---------------------------------------|
G|-------------12~----10~-----10h12p10---|
D|-9--------10-----11-----12~------------|
A|-8--10-12------------------------------|
E|-0-------------------------------------|



     C       Dm        G
E|----0--------1--------3----------------|
B|------1--------3--------3--------------|
G|--------0--------2--------0------------|
D|-----------0---------------------------|
A|--3------------------------------------|
E|--------------------3------------------|



C                Dm
I follow the Moskva,
              C
down to Gorky Park,
                 Dm      Am  G
listening to the wind of change
C                Dm
An August summer night,
                 C
soldiers passing by,
                 Dm      Am  G
listening to the wind of change

RIFF 2
entra guitarra acustica

(F Dm  F Dm  Am Dm Am G)

C                    Dm
The world is closing in,
             C
did you ever think,
                    Dm          Am    G
that we could be so close, like brothers?
C                   Dm
The future's in the air,
                   C
I can feel it everywhere,
                 Dm      Am  G
blowing with the wind of change


Refrão:
C    G          Dm           G7
Take me, to the magic of the moment,
     C     G
on a glory night,
          Dm            G             Am
where the children of tomorrow dream away, (dream away)
F              G
in the wind of change

C                Dm
Walking down the street,
             C
distant memories,
                  Dm       Am G
are buried in the past, forever
C                Dm
I follow the Moskva,
              C
down to Gorky Park,
                 Dm      Am  G
listening to the wind of change

C    G          Dm           G7
Take me, to the magic of the moment,
     C     G
on a glory night,
          Dm            G                  Am
where the children of tomorrow share their dream (share their dream)
F           G
for you and me

Am                       G
The wind of change blows straight,
                 Am
into the face of time
                            G
Like a storm wind that will ring,
                              C
the freedom bell for peace of mind
                   Dm
Let your balalaika sing,
                        E7
what my guitar wants to say

Base do Solo:
F G  E Am  F G  Am    F G  E7 Am  Dm  E E7

Solo:


E|-------------------------------|----------------------------
B|----12b13-------12-12b13-12b13-|-15b17~~~-10-10-12-13-12-10-
G|-14----------14----------------|----------------------------
D|----------14-------------------|----------------------------
A|-------------------------------|----------------------------
E|-------------------------------|----------------------------



E|--------------------|-----------------------|
B|------10------------|-----------------------|
G|-12--------12b14b12-|-12-9-12-12b14b12-9-10-|
D|--------------------|-----------------------|
A|--------------------|-----------------------|
E|--------------------|-----------------------|



E|---------------------------|-------------------12-------------|
B|------------------------10-|-12b13-12b13-12b13----12b13b12-12-|
G|-10b12b10-9-7-7b9-5-7-9----|----------------------------------|
D|---------------------------|----------------------------------|
A|---------------------------|----------------------------------|
E|---------------------------|----------------------------------|



E|-15b17-15-13-12h13p12-|
B|----------------------|
G|----------------------|
D|----------------------|
A|----------------------|
E|----------------------|



E|-------------|-------------|----------------------22b23-|
B|-10-10-13-12-|-12-13-15-17-|----------17b18-17-15-------|
G|-------------|-------------|----------------------------|
D|-7--7--10-9--|-9--10-12-14-|-12h14-12-------------------|
A|-------------|-------------|----------------------------|
E|-------------|-------------|----------------------------|


C    G          Dm           G7
Take me, to the magic of the moment,
     C     G
on a glory night,

          Dm            G             Am
where the children of tomorrow dream away, (dream away)
F              G
in the wind of change

Base final:
F Dm  F Dm  Am Dm Am G



E|-5-7-8-5-7-8-10-8-8-10-12-13-12-10-8-5-8-7--|
B|--------------------------------------------|
G|--------------------------------------------|
D|--------------------------------------------|
A|--------------------------------------------|
E|--------------------------------------------|
Texto Columnas
Alterar tom ½ tono ½ tono
sintonización acordes esconder tabs más »

Comentarios (56)

  • Guilherme Guilherme: Publicado en 16/11/2013 22:41

    pqp, a cifra tava certa, cagaram nela, s[erio, C-A-G-A-R-A-M

  • Guilherme Guilherme: Publicado en 14/09/2013 13:05

    no tom de ré fica perfeito

  • guilherme.souza.3910 guilherme.souza.3910: Publicado en 02/09/2013 09:45

    cade a intro do outro violao

  • felipe.bohnertpaetzold felipe.bohnertpaetzold: Publicado en 22/08/2013 12:12

    era bom dar um jeito pra poder dividir em colunas

  • felipe.bohnertpaetzold felipe.bohnertpaetzold: Publicado en 22/08/2013 12:11

    muito boa e facil, Scorpions 4ever

  • luiz luiz : Publicado en 20/08/2013 15:26

    consegui tocar. muito facil

  • matheuscorpion matheuscorpion: Publicado en 03/08/2013 02:16

    video aula ai pra glr, eu toco teclado, mas quero que meus companheiros de banda toquem...

  • dhijonas dhijonas: Publicado en 21/07/2013 04:56

    Video aula ai

  • manoel.h manoel.h: Publicado en 30/06/2013 10:23

    video aula pls musica muito linda

  • xfelipe98 xfelipe98: Publicado en 12/04/2013 10:07

    video aula!

Exhibiendo 10 de 56 comentarios Mostrar más ver todo »
Composición: Ira Gershwin / Klaus Meine / Peter Frampton / Shondrae Crawford
Ese no és el compositor? Avisenos.
Contribución: Diogo Caliman Correcciónes: Kinho , victor.x e mais 11 »
  1. Sweet Child O' Mine - Guns N' Roses mantiene 2.925 exhibiciones
  2. Wonderwall - Oasis mantiene 2.186 exhibiciones
  3. Hey Jude - The Beatles mantiene 1.958 exhibiciones
  4. Nothing Else Matters - Metallica mantiene 1.804 exhibiciones
  5. Wake Me Up - Avicii mantiene 1.773 exhibiciones
  6. Stairway To Heaven - Led Zeppelin mantiene 1.661 exhibiciones
  7. When I Was Your Man - Bruno Mars mantiene 1.589 exhibiciones
  8. More Than Words - Extreme mantiene 1.450 exhibiciones
  9. Get Lucky - Daft Punk mantiene 1.367 exhibiciones
  10. Don't Let Me Down - The Beatles mantiene 1.360 exhibiciones
  1. The Beatles- mantiene 25.078 exhibiciones
  2. Metallica- mantiene 8.619 exhibiciones
  3. Guns N' Roses- mantiene 7.929 exhibiciones
  4. Nirvana- mantiene 6.626 exhibiciones
  5. Red Hot Chili Peppers- mantiene 5.725 exhibiciones
  6. One Direction- mantiene 5.420 exhibiciones
  7. Bruno Mars- mantiene 4.865 exhibiciones
  8. Coldplay- mantiene 4.745 exhibiciones
  9. Oasis- mantiene 4.554 exhibiciones
  10. Green Day- mantiene 3.603 exhibiciones
Exhibir acordes »

Acordes y tabs

Aprenda

Studio Sol

©1996 - 2014 Cifra Club · el primero, mayor y más accedido del Brasil · 329 mil músicas · 5.9 millones de personas registradas

publicidad
cerrar