O Inferno Vai Ter Que Esperar

Rosa Tattooada

 Rosa Tattooada
Tono: C#
Sintonización: Eb Ab Db Gb Bb Eb
		
(afinação em Eb)

C#
Ele sentiu que algo escapou
       Bbm
Soube que sua garota se foi
       Ab
E com ela alguém
                      F#      Ab    C#
E o tempo passou com raiva e solidão
C#
E então numa noite, numa rua qualquer
     Bbm
Ele viu sua garota através da vitrine
       Ab
E com ela alguém, uh
       F#          (F# F) Ebm
E com ela alguém
                       Bbm
Sentiu suas pernas como blocos de pedra
     Ab           F#
E o coração esmagando o seu peito
      Ab                 Bbm
Caminhou até lá com uma arma na mão
      Ab                    F#        C#
Em frente aos dois com uma arma na mão


(solo) C# Ab Bbm Ab C# Ab Bbm F# C#
E|--------------------------------------------------------------------------------------------|
B|--------------------------------------------------------------------------------------------|
G|-8^--8^--8^--8^---6--5--6--5----------------------------------------------------------------|
D|------------------------------6--8--8--6--6---6--8-------8--6--8--6--8--6--8--6--8--6--8--6-|
A|---------------------------------------------------6--8-------------------------------------|
E|--------------------------------------------------------------------------------------------|



E|-----------------------------------------------------------------------------|
B|----9------------------------------------------------------------------------|
G|-8^-----8^----8--6--5------6--5---------8--6--5--5--6--5--8--6--5--6--5------|
D|-----------------------8---------8--6----------------------------------------|
A|-----------------------------------------------------------------------------|
E|-----------------------------------------------------------------------------|



E|------------------------------------------------------------------------------|
B|--------------------------------------------------------------------9---------|
G|--3--5--3--1----1------------------------------------------------8^------8^--6|
D|--------------3---3-1--3--1----1---------1--------6-8-8--6-8-6----------------|
A|-----------------------------3----3--1-------6-8------------------------------|
E|-----------------------------------------4------------------------------------|


C#
Sorriu e disse adeus
       Ab
Ele sabia o que fazer
       Bbm
Mas sabia tambem
            Ab
Que não nasceu pra matar

(refrão 2x)
        C#
Nem um tiro nem uma gota de sangue
     Ab
O inferno vai ter que esperar
    Bbm
Sorriu e disse adeus
 F#                        C#
O inferno vai ter que esperar

(solo)

Comentarios 0

Composición: Beat Barea / Eduardo Rod / Jacques Maciel / Paulo Cássio / Thedy Corrêa
Ese no és el compositor? Avisenos.
Contribución: JLG_Bugiu
Exhibir acordes »
publicidad
cerrar