Rosa de Saron

Casino Boulevard

244 reproducciones
Tono: E
Intro: A9   F#m   C#m   E


E|--------------------------------------------------------------|
B|----------0-------------0-------------------------------------|
G|------0-----0-------0-----0------------0-------------0--------|
D|----2---2---------2---2-----2------4-----4-------0-----0---0--|
A|--3-----------3-0----------------2---2---------2---2-----2----|
E|-------------------------------0-----------0-3----------------|


E|-----------------------------------------------------------------------|
B|----------0------------------------------------------------------------|
G|------0-----0------------2-------------------0-------------0-----------|
D|----2---2----------0h2-4---4-2-0--------4------4-------0-----0---0-----|
A|--3-----------3-0---------------------2---2----------2---2-----2-------|
E|------------------------------------0------------0-3-------------------|


obs: a intro é afinada em C# mas a cifra está em E


A9    F#m        C#m         E
Se ganhou suspire, Se perdeu aprenda.
A9       F#m       C#m       E
Porque é hora de ser, Não demore ou vai...
A9      F#m        C#m   E
Vai perder sua aposta, Agora é a hora
A9      F#m          C#m        E          F#      A9
Escolha bem suas cartas, O seu jogo já vai co...meçar.

Refrão:
E                 B9                   C#m
O lance está no ar, é só você gritar bem alto, alto...
A9
Mas se prepare, Prepare.
E
Porque nada no mundo é de graça,
B9                 C#m                 A9
Você pode até ter medo, mas ande, caminhe, so não pare, Não pare.

A9         F#m    C#m    E
Qual é o seu limite? Até onde aguenta?
A9        F#m         C#m         E
Se tudo aqui tem prazo, qual é o seu?
A9             F#m          C#m                      E
Pois tudo aqui tem um porque, A vida é o casino e você a fixa.
A9       F#m           C#m      E         F#               A9
Nunca permita que a sua, Felicidade dependa de algo que possa perder.

Refrão:
E                B9                    C#m
O lance está no ar, é só você gritar bem alto, alto...
A9
Mas se prepare, Prepare.
E
Porque nada no mundo é de graça,
B9                 C#m                  A9
Você pode até ter medo, mas ande, caminhe, so não pare, Não pare, Nuncaa

Solo: A9   F#m  C#m  E


E|--------------------------------------------------------------------------------------------------------|
B|----------------7-7-7-7-9-9-9-9----------------------9-10-9---------------------------------------------|
G|6-6-6-6-9-9-9-9-----------------4-4-4-4-4/6-6~---6-9-------11/9-11-11/6--4/6----------4--4-6------------|
D|-----------------------------------------------------------------------------6/4-2-4/6------6/4-2---4~--|
A|-------------------------------------------------------------------------------------------------4-2----|
E|--------------------------------------------------------------------------------------------------------|


E|-------------------------------------------------------------------|
B|-----------------------------------------------16/17-16--------14~~|
G|------------------------------------11-11-11-11--------18/16-13----|
D|11-11-11-11-13-13-13-13-14-14-14-14--------------------------------|
A|-------------------------------------------------------------------|
E|-------------------------------------------------------------------|


                    A9  F#m       C#m
Todos querem uma fatia da sua glória,
E            A9       F#m    C#m      E
Todos todos querem apostar, sua       vida
A9  F#m   C#m   E     A9  F#m    C#m   B9
Sua graça, sua culpa, sua calma, sua alma

Refrão:
E              B9                       C#m
O lance está no ar, é só você gritar bem alto, alto...
A9
Mas se prepare, Prepare.
E
Porque nada no mundo é de graça,
B9                  C#m                  A9
Você pode até ter medo, mas ande, caminhe, so não pare,

E   B9   C#m  A9   F#m   A9   F#m  C#m E
Nada no mundo é de graaaaça....
    Composición: Guilherme SáColaboración y revision:
    • eduardookalves
    • lucasvieirarock
    • davigadelha
    • brunozolini
    • +2

    Comentarios 53

    • Jordan Jordan: Publicado en 15/05/2015 10:47

      faz video aula pfv

    • Gustavo Gustavo: Publicado en 30/04/2015 03:59

      faz video aula ai pfv...'-'

    • clemerson.silva.399 clemerson.silva.399: Publicado en 12/01/2015 00:15

      video

    • maria clara maria clara: Publicado en 27/06/2014 15:26

      faz vidéo aula pf

    • Lucas Lucas: Publicado en 08/06/2014 20:49

      ta tudo errado ai gente...

    • diegoeduardod diegoeduardod: Publicado en 01/01/2013 22:41

      afinaçao 1 tom e meio abaixo!

      • Gabriel Gabriel: Publicado en 20/04/2014 14:39

        meio tom abaixo! só meio tom!
        Eb Bb Gb Db Ab Eb

      • Gabriel Gabriel: Publicado en 20/04/2014 14:41

        tudo errado essa treta kkk!

    • zackoliveira7 zackoliveira7: Publicado en 10/12/2012 15:54

      Ae esse solo de introdução está errado :/

      • diogoquintino diogoquintino: Publicado en 01/01/2013 15:41

        nao cara ta certo, ta igual a original

    Exhibiendo 10 de 53 comentarios Mostrar más ver todo »

    ¿conseguiste tocar?

    • Gabriel
    • mateus.rochagama
    • Leobrasiil
    • daniel.ferrera.399
    • guitarristapablo
    • matheus.santosalves.73
    • kevyn.cabral.5
    • •••

    covers

    ¡Grave un vídeo tocando Casino Boulevard y envie para nosotros!

    Ex.: http://www.youtube.com/watch?v=0IvSvIwGdwk
    ver cover de otras canciones »
    0:00 / 0:00

    Capitulos

      1 versão de guitarradificuldadreproduccionescontribuición y correción
      1 versão de guitarra eléctricadificuldadreproduccionescontribuición y correción
      1 versão de cavacodificuldadreproduccionescontribuición y correción
      1 versão de tecladodificuldadreproduccionescontribuición y correción
      1 versão de Guitar Proformatodownloadscontribuición
      play/pausefechar subir/bajar velocidad
      6ª cuerda E5ª cuerda A4ª cuerda D3ª cuerda G2ª cuerda B1ª cuerda E
        acordes
        publicidad
        cerrar
        ok