Me Amas Igual

Rojo

 Rojo
Tono: A
		
Hola a todos!! 
Mmm aquí esta la canción de "rojo – me amas igual " 
Que Dios les bendiga 

Me amas igual 
A pesar de mis errores 
Me amas igual 
Aunque no, no soy perfecto 
Me amas igual 
Y me abrazas otra vez 

              C 
Me amas igual 

Aunque a veces pienso lento 
              A 
Me amas igual 

Aunque sigo en el proceso 
              F 
Me amas igual 
      D 
Y por eso te diré 

:CORO: 


G|--------------------------0------------- ¡ 
D|--------------4--------------9-------2-- ¡(x2) 
A|----2------55---5-----77---------33----3 ! 
E|-33---3--------------------------------- ¡ 



G|--------------------------0------------- ¡-------------------- ¡ 
D|--------------4--------------9-------2-- ¡--------2--------2---¡ 
A|----2------55---5-----77---------33----3 !---00—3------00-3--- ¡ 
E|-33---3--------------------------------- ¡---------------------¡ 



G|------------- ¡ 
D|------------- ¡ 
A|--5-5-5-5-5-- ! 
E|------------- ¡ 


                C 
Me amas igual! 

Aunque a veces dude mucho, 
                A 
Me amas igual! 

Aunque a veces no te escucho, 
                F 
Me amas igual! 
     D 
Sigues creyendo en mí 

Me amas igual! 

Y quiero ser tu reflejo, 
                A A 
 Me amas igual! 

Quiero darte mis secretos, 

G|-------- ¡ 
D|-------- ¡ 
A|-------- ¡ 
E|-13s5--- ¡ 

               F 
Me amas igual! 
       D 
Y por eso te diré 

:CORO: 

:SOLO: 


G|--------- ¡ 
D|-2-2----- ¡(x2) 
A|-----3-3- ¡ 
E|--------- ¡ 


:PUENTE: 

E                      C 
Me amas igual! 
E               C 
Me amas igual! 
                     E 
Tú tienes La culpa de esta dicha 
                  C 
De mi esperanza cada día 
                  E 
Y cada mañana aL despertarme 
                 C 
Voy a decidir siempre adorarte 

:coro: 

:FINAL: 


G|------------------------------------------------------ ¡ 
D|-5-5-5-5-5--------5-5-5-5-5--------5-5-5-5-5--------5- ¡ 
A|-----------3-3-3------------3-3-3------------3-3-3---- ¡ 
E|------------------------------------------------------ ¡
Texto Columnas
Alterar tom ½ tono ½ tono
sintonización acordes esconder tabs más »
314 exhibiciónes

Comentarios 0

Composición: Sabe quien és el compositor? Envíenos. Contribución: carolina
502 Bad Gateway

502 Bad Gateway


nginx
Exhibir acordes »
publicidad
cerrar