É Preciso Saber Viver

Roberto Carlos

 Roberto Carlos
Tono: D
		
"se o bem e o mal..."

E|--------------------------------------|
B|----------------5h6h6h6--4h6h6h6------|
G|-------------5--5--------5------------|
D|-----3-5-5/7--------------------------|
A|-3-5----------------------------------|
E|--------------------------------------|



E|---------------------------------------|
B|---------------------------------------|
G|--5--3-3--2--3------5---------------5--|
D|---------------5h7----7-5-5-3-3-5/7----|
A|---------------------------------------|
E|---------------------------------------|


Intro: D D7+ D7 G Gm D Bm E G A

D
Quem espera que a vida
D7+
Seja feita de ilusão
 D7
Pode até ficar maluco
 G
Ou viver na solidão
 Gm
É preciso ter cuidado
 D               Bm
Pra mais tarde não sofrer,
 E            G   A
É preciso saber viver.
 D
Toda pedra no caminho
 D7+
Você deve retirar
 D7
Numa flor que tem espinhos
     G
Você pode se arranhar
     Gm
Se o bem e o mal existem
  D          Bm
Você pode escolher,
 E        G    A
É preciso saber viver
 G        D    Bm
É preciso saber viver
 G        D    Bm
É preciso saber viver
 G        D    Bm
É preciso saber viver
E          G A
Saber viver

E|------10-8-10-------------------------|
B|-8h10---------8/10--------------------|
G|-------------------10-9---------------|
D|--------------------------------------|
A|--------------------------------------|
E|--------------------------------------|



E|------10-8-10-13-15-13-15/17--15-13-15-------14--|
B|-8h10-------------------------------15-15-14-14--|
G|-------------------------------------------------|
D|-------------------------------------------------|
A|-------------------------------------------------|
E|-------------------------------------------------|



E|-8b(10)-5------------------3----------|
B|----------8b(10)-6-----6-----3--------|
G|-------------------5h7---------4------|
D|--------------------------------------|
A|--------------------------------------|
E|--------------------------------------|


( D D7+ D7 G Gm D Bm E G A )

(Refrão)

Comentarios 2

  • william william: Publicado en 01/06/2014 10:46

    Versão dos titãs ten vídeo aula

  • beatriz beatriz: Publicado en 14/07/2013 11:32

    facil

Composición: Alessandro Matias / Antonio Luiz / Denniz Pop / Erasmo Carlos / Joyce / Roberto Carlos
Ese no és el compositor? Avisenos.
Contribución: Brasil Correcciónes: kiki , Marco e mais 7 »
Exhibir acordes »
publicidad
cerrar