Esse Tal De Roque Enrow

Rita Lee

 Rita Lee
Tono: A
		
Rita Lee /Paulo Coelho

Solo:

E-----------------------------------------12-14-14-14-12----14-14---14-14-14-14-12--------------
B----10-----------------------------12-15----------------15------------------------15-12-12-----
G-11----11-9----9---------------------------------------------------------------------------11--
D------------12---12----9------12-9-------------------------------------------------------------
A--------------------12---12-9------------------------------------------------------------------
E-----------------------------------------------------------------------------------------------



E------------------------------------------------------------------------------------------(14)-
B-11----10-----------------------10-----------10-10----------------------------------12-15------
G----10----9------9-11-9----9-11----11-10--11-------11-9----9----11----10-9-9-9-----------------
D------------9-12--------12------------------------------12---12----12----------12-9------------
A-----------------------------------------------------------------------------------------------
E-----------------------------------------------------------------------------------------------


()=repetidas vezes


E-12--------------------------------------------------------12----------------------------------
B----15-12-12----11----10-----------------------10-10-12-14----14-12----12-14-------12-14-12----
G-------------11----10----9------9-11-9----9-11----------------------14-------11-14----------14-
D---------------------------9-12--------12------------------------------------------------------
A-----------------------------------------------------------------------------------------------
E-----------------------------------------------------------------------------------------------



E----------------12-------------------------------------------------12--------------------------
B-12----------14----14-12----12-------------------------------12-14----14-12----12----12-14-12--
G----14-11-14-------------14----14-13-14-11-13----11----11-14----------------14----14-----------
D----------------------------------------------14----12-----------------------------------------
A-----------------------------------------------------------------------------------------------
E-----------------------------------------------------------------------------------------------



E-------------12----------------(14)------------------------------------------------------------
B----12-14-14----14-12----12---------14-12----14-12----14-12-14-12----12-14-(---12)-------------
G-14-------------------14----14------------14-------14-------------14-------(14---)-13-(11-13)--
D-----------------------------------------------------------------------------------------------
A-----------------------------------------------------------------------------------------------
E-----------------------------------------------------------------------------------------------



     B
Ela nem vem mais pra casa, Doutor
      A7
Ela odeia meus vestidos
       B
Minha filha é um caso sério, Doutor
      A7
Ela agora está vivendo com esse tal de
E            F#7  F7M  E
Roque enrow, roque en row
F#7   F7M
Roque en,

Ela não fala comigo, Doutor
Quando ele está por perto,
É um menino tão sabido, Doutor,
Ele quer modificar o mundo
Esse tal de roque enrow, roque en row

F#7 B7    A7
Ro quem é ele?
Quem é ele?
                      E
Esse tal de roque enrow?
     A7                                  E
Uma mosca, um mistério, uma moda que passou,
A7
Ele, quem é ele?
                    F#7 F7M
Isso ninguém nunca falou,

Ela não quer ser tratada, Doutor,
E não pensa no futuro,
E minha filha está solteira, Doutor,
Ela agora está lá na sala com esse tal de
Roque enrow, roque en row,
Roque en,

Eu procuro estar por dentro, Doutor,
Dessa nova geração
Mas minha filha não me leva à sério, Doutor,
Ela fica cheia de mistério com esse tal de
Roque enrow, roque en row

Ro quem é ele?
Quem é ele?
Esse tal de roque enrow?
Um planeta, um deserto, uma bomba que estourou
Ele, quem é ele? Isso ninguém nunca falou

Ela dança o dia inteiro, Doutor
E só estuda pra passar,
E já fuma com essa idade, Doutor
Desconfio que não há mais cura pra esse tal de
Roque enrow, roque en row,
F#7  F7M  E   F#7  D   E
Roque enrow, roque en row,
24 exhibiciónes

Comentarios 0

Composición: John Ondrasik / M / Paulo Coelho / Rita Lee
Ese no és el compositor? Avisenos.
Exhibir acordes »
publicidad
cerrar