California King Bed

Rihanna

 Rihanna
Tono: G
		
Solo:

E|-----------------------------------------0-----------------0-----|
B|-----3-----3-------3-----3---------3-------3---------3-------3---|
G|---0-----0-------0-----0---0-----0-----0-----0-----0-----2-----2-|
D|-----------------------------------------------------------------|
A|-2-----3-------2-----3---------2-----3---------------------------|
E|-------------------------------------------------3-----2---------|


Verso:

E|-------------------------------|
B|-3-3-x---3-3-x---3-3-x---3-3-x-|
G|-0-0-x---0-0-x---0-0-x---0-2-x-|
D|-------------------------------|
A|-2-3-x---2-3-x---2-3-x---------|
E|-------------------------3-2-x-|

Chest to chest,
Nose to nose
Palm to palm,
We were always just that close
Wrist to wrist,
Toe to toe
Lips that just felt just like the inside of a rose
   G               D            Em   C
So how come when I reach out my fingers
   G                    D            Em   C
It feels like more than distance between us

Refrão:
        G           D
In this California king bed
          Em               C
We're ten thousand miles apart
          G           D                 Em
I've been California wishing on these stars
                     C                 G
For your heart, for me, my California king
Verso:

E|-------------------------------|
B|-3-3-x---3-3-x---3-3-x---3-3-x-|
G|-0-0-x---0-0-x---0-0-x---0-2-x-|
D|-------------------------------|
A|-2-3-x---2-3-x---2-3-x---------|
E|-------------------------3-2-x-|

Eye to eye
Cheek to cheek
Side by side
You were sleeping next to me
Arm to arm
Dusk to dawn
With the curtains drawn
And a little last nite on these sheets
   G               D            Em   C
So how come when I reach out my fingers
   G                    D            Em   C
It Seems like more than distance between us

        G          D
In this California king bed
          Em               C
We're ten thousand miles apart
      G           D                Em
I bet California wishing on these stars of your heart
    C
for me
              G     D  Em  C
My California king

( G  D  Em  C )
Solo 2:

E|---------------------------------------------------------------------------------|
B|-12--------10/12--10----10--12-10------------------------------------------------|
G|---12----------------12------------12-11-12----11h12p11--------------------------|
D|-----12-9-----------------------------------------------14-12---9h10p9-----------|
A|-----------------------------------------------------------------------10--------|
E|--------------------------------------------------------------------------10-8-7-|



E|-------------------------------------------------|
B|-12--------10/12--10--------------10-----12------|
G|---12----------------11-12-11--------12-----14---|
D|-----12-9----------------------12----------------|
A|-------------------------------------------------|
E|-------------------------------------------------|


Just when I felt like giving up on us
You turned around and gave me one last touch
B5                    C5
That made everything feels better
E5                D5
And even then my eyes got better
C5
So confused wanna ask you if you love me
C5
But I don't wanna seem so weak
F#5   G5         A5  B5      C5
Maybe I've been California dreaming

        G          D
In this California king bed
          Em               C
We're ten thousand miles apart
      G           D                Em
I bet California wishing on these stars of your heart
    C
for me
              G      D  Em  C
My California king
              G    D  Em  C
My California king

        G          D
In this California king bed
          Em               C
We're ten thousand miles apart
      G           D                Em
I bet California wishing on these stars of your heart
    C
for me
              G
My California king
Texto Columnas
Alterar tom ½ tono ½ tono
sintonización acordes esconder tabs más »
94 exhibiciónes

Comentarios 5

  • Maria Maria: Publicado en 16/06/2013 12:40

    O segundo solo está na cifra completa, logo acima.

  • jonbonjovi123 jonbonjovi123: Publicado en 13/07/2012 14:57

    fico muito legal mas ta faltando o segundo solo :S

  • balsaneli1 balsaneli1: Publicado en 24/05/2012 21:53

    ?? cd segundo SOLOOOO ????

  • baby_franklin baby_franklin: Publicado en 17/03/2012 13:15

    bem legal...

  • thiago.sky thiago.sky: Publicado en 30/11/2011 22:30

    ai se eu te pego rihanna (~.*)k.k

Composición: Joshua Fatty Olds
Ese no és el compositor? Avisenos.
Contribución: felipe
  1. Sweet Child O' Mine - Guns N' Roses mantiene 2.981 exhibiciones
  2. Wonderwall - Oasis mantiene 2.226 exhibiciones
  3. All Of Me - John Legend mantiene 1.860 exhibiciones
  4. Nothing Else Matters - Metallica mantiene 1.608 exhibiciones
  5. Stairway To Heaven - Led Zeppelin mantiene 1.577 exhibiciones
  6. Hey Jude - The Beatles mantiene 1.489 exhibiciones
  7. When I Was Your Man - Bruno Mars mantiene 1.417 exhibiciones
  8. The Scientist - Coldplay mantiene 1.310 exhibiciones
  9. More Than Words - Extreme mantiene 1.272 exhibiciones
  10. Wake Me Up - Avicii mantiene 1.111 exhibiciones
  1. The Beatles- mantiene 23.263 exhibiciones
  2. Guns N' Roses- mantiene 7.752 exhibiciones
  3. Metallica- mantiene 6.945 exhibiciones
  4. Red Hot Chili Peppers- mantiene 5.313 exhibiciones
  5. Nirvana- mantiene 4.973 exhibiciones
  6. Oasis- mantiene 4.898 exhibiciones
  7. Coldplay- mantiene 4.893 exhibiciones
  8. Bruno Mars- mantiene 4.503 exhibiciones
  9. One Direction- mantiene 3.983 exhibiciones
  10. Green Day- mantiene 3.338 exhibiciones
Exhibir acordes »

Acordes y tabs

Aprenda

Studio Sol

©1996 - 2014 Cifra Club · el primero, mayor y más accedido del Brasil · 337 mil músicas · 6.2 millones de personas registradas

publicidad
cerrar