Red Hot Chili Peppers

Soul To Squeeze

1.146 reproducciones
Versão 1
----------

 Intro:

G|--12h14-------14--14-16-14------------------------|
D|---------14h16--16--------------------------------|
A|-----------------------------0-0-0-0-0-0-0...-----|
E|---------------------------/----------------------|

G|---------------------------------------------------|
D|---------------0-2-3-------------------------------|
A|--------3-3-2-3------1---5-5---5-8---8-------------|
E|-1-1-3h5---------------------5-----6---8--3-6------|

G|----------------------333-------------------------|
D|---------------0-2-3------------------------------|
A|--------3-3-2-3------1-----5-5---5-8---8----------|
E|-1-1-3h5-----------------------5-----6---8--3-6---|

  1° Versos:

G|---------------------------------------------------|
D|---------------0-2-3-------------------------------|
A|--------3-3-2-3------1---5-5---5-8---8-------------|
E|-1-1-3h5---------------------5-----6---8--3-6------|

G|-----------------------3------------------------------------------|
D|---------------0-2-3--------------------------------3-------------|
A|--------3-3-2-3------1----5-5---5-8---8---10-----3h5--5-3/1-------|
E|-1-1-3h5----------------------5-----6---8----8-6------------------|

G|----------------------333----------------------------|
D|---------------0-2-3---------------------------------|
A|--------3-3-2-3------1-----5-5---5-8---8-------------|
E|-1-1-3h5-----------------------5-----6---8--3-6------|

G|---------------------------------------------------|
D|---------------0-2-3-------------------------------|
A|--------3-3-2-3------1---5-5---5-8---8-------------|
E|-1-1-3h5---------------------5-----6---8--3-6------|

  1º Refrão:
  
G|-------------------------------------------------|
D|---7-8-10---7------------------------------------|
A|-8------------8/10--5-5-5-7-8------------10--9---|
E|----------8-------------------6-66-6-8h10--10----|

G|-----------------------------------------------------------|
D|---7-8-10---7-7h8p7----------------------------------------|
A|-8-----------------8/10--5-5-5-5-5-5-7-8-------------------|
E|----------8------------------------------5-5-5-5h6---------|

  2º Versos :

G|---------------------------------------------------|
D|---------------0-2-3-------------------------------|
A|--------3-3-2-3------1---5-5---5-8---8-------------|
E|-1-1-3h5---------------------5-----6---8--3-6------|

  2:
G|---------------------------------------------------------------|
D|---------------0-2-3-------------------------------3-----------|
A|--------3-3-2-3------1---5-5---5-8---8---10-----3h5--5-3-------|
E|-1-1-3h5----------------------5-----6---8----8-6---------------|

  2º Refrão :

G|-------------------------------------------------|
D|---7-8-10---7------------------------------------|
A|-8------------8/10--5-5-5-7-8------------10-9----|
E|----------8-------------------6-66-6-8h10--------|
  
  2:
G|-----------------------------------------------------------|
D|---7-8-10---10-8-7-----------------------------------------|
A|-8-----------------10--5-5-5-5-5-5-7-8---------------------|
E|----------8------------------------------5-5-5-5h6---------|

  3º Versos:

G|----------------------333-------------------------|
D|---------------0-2-3------------------------------|
A|--------3-3-2-3------1-----5-5---5-8---8----------|
E|-1-1-3h5-----------------------5-----6---8--3-6---|

G|---------------------------------------------------|
D|---------------0-2-3-------------------------------|
A|--------3-3-2-3------1---5-5---5-8---8-------------|
E|-1-1-3h5---------------------5-----6---8-8-8-8-8-8-|

  Interlúdio:                                   Final:
    
    S P P         S  P  S  P S S                S P P
G|----7-10/12--------5-----5-------|        G|----7-10/12---------------------|  s: SLAP
D|-------8/10-x-x-5h7---5h7--7-----|        D|-------8/10---------------------|  P: POP
A|--5--------------------------3---|        A|--5-----------------------------|
E|---------------------------------|(3X)    E|------------5-5-5-5h6--6-6------|

  4º Versos:

G|---------------------------------------------------|
D|---------------0-2-3-------------------------------|
A|--------3-3-2-3------1---5-5---5-8---8-------------|
E|-1-1-3h5---------------------5-----6---8--3-6------| 

G|----------------------3------------------------------------------|
D|---------------0-2-3-------------------------------3-------------|
A|--------3-3-2-3------1---5-5---5-8---8---10-----3h5--5-3-1-------|
E|-1-1-3h5---------------------5-----6---8----8-6------------------|

G|----------------------3-3-3----------------------------|
D|---------------0-2-3-----------------------------------|
A|--------3-3-2-3------1-------5-5---5-8---8-------------|
E|-1-1-3h5-------------------------5-----6---8--3-6------|

G|---------------------------------------------------|
D|---------------0-2-3-------------------------------|
A|--------3-3-2-3------1----5-5---5-8---8------------|
E|-1-1-3h5----------------------5-----6---8--3-6-----|

  Refrão Final:

G|------------------------------------------------------------|
D|---7-8-10---7-7h8p7-----------------7-----------------------|
A|-8------------------8/10-5-5-5-7h8----------------10-9------|
E|----------8---------------------------6-66-66-8h10----------|

G|---------10h12----------------------------------------------------------|
D|--7-8-10----------------7-8-10-7-8--------------------------------------|
A|-8-8-8------------7-8-10-----------10-5-5-5-5-5-7-8---------------------|
E|----------------8-----------------------------------5-5-5-5h6-6-6-6-----|

G|---------10h12----------------------------------------------------------|
D|--7-8-10----------------7-8h10p8-7h8p7------------7---------------------|
A|-8-8-8------------7-8-10--------------10-5-5-5-7h8---------------10--9--|
E|----------------8------------------------------------6-6-6-6-8h10--10---|


G|---------10h12-10------------------------------------------------------------|
D|---7-8-10--------10---10-12-10-8-10-8-7-8-7----------------------------------|
A|-8------------------------------------------5-5-5-5-5-5-7-8------------------|
E|--------------------8---------------------------------------5-5-5-5h6-6-6-1--|
    Composición: Anthony Kiedis / Chad Smith / Flea / John FruscianteColaboración y revision:
    • Léo

    Comentarios 0

    140 .
    140 cancelar
    0:00 / 0:00

    Capitulos

      2 versões de contrabajo reproducciones contribuición y correción
      1 versão de batería reproducciones contribuición y correción
      1 versão de Guitar Proformatodownloadscontribuición
      play/pausefechar subir/bajar velocidad
      6ª cuerda E5ª cuerda A4ª cuerda D3ª cuerda G2ª cuerda B1ª cuerda E
        acordes
        publicidad
        cerrar
        ok