Soul To Squeeze

Red Hot Chili Peppers

 Red Hot Chili Peppers
Versão 1
----------

INTRO
G |-12-----12--12-14-12--------------------------
D |---12-14--14---------7-7-7-7-7-7-7-7-7  ....
A |----------------------------------------------
E |----------------------------------------------
VERSE
G |---------------------------------------
D |---------------0-2-3---------3-3-------
A |--------3-3-2-3-----1-5-5-0-5-1-3------
E |-1-1-3-5-------------------------3-6-5-
VARIATION(TO THE VERSE)
G |---------------------3-3-3--------------------------
D |---------------0-2-3-------------3-3-5-3-----3-0----
A |--------3-3-2-3-----1-----5-5-0-5-1-3---5-3-5---3-0-
E |-1-1-3-5---------------------------------6----------
***CHORUS 1***
G |---------------------------------------------------------------------------
D |--7-8-10-7-5---------------------7-9-10-7-7-8-7-5-----------------7--------
A |-8--------8-5-5-5-7-8-----10-9--8----------------8-7-5-5-5-5-5-5-8---------
E |--------8------------6-5-8--8----------8---------------------------6-8-5-3-
***CHORUS 2***
G |---------------------------------------------------------------------------
D |--7-8-10-7-5-------7----------------7-8-10-10-8-7-5-------------7----------
A |-8--------8-5-5-5/8----------10-9--8---------------5-5-5-5-5-5/8-----------
E |--------8-----------6-5-3-5-8--8----------8----------------------6-8-6-5-3-
GUITAR SOLO
G |---------------------3-3-3----------------------------------------------
D |---------------0-2-3---------------3-3--------------------------0-2-3---
A |--------3-3-2-3-----1-------5-5-0-5-1-3-(5)--------------3-3-2-3-----1--
E |-1-1-3-5-----------------------------------3-6-5--1-1-3-5---------------
G |---------------------------
D |--------3-3----------------
A |-5-5-0-5-1-3-3-3-3-3-3-3-3-
E |---------------------------
###BRIDGE###
G |--7----12----5-----5-----7----12----5--
D |---/10-10-5-7-7-5-7-7-----/10-10-5-7-7-
A |-5-------------------3--5--------------
E |---------------------------------------
***LAST CHORUS***
G |-------------------------------------------------------/12-10-----------5------
D |--7-8-10-7-7-8-7-5-5-------7----------------7-8-10-(10)------5-0-3-5-7-8-8-7-5-
A |-8----------------8-5-5-5/8----------10-9--8-----------------------------------
E |--------8-------------------6-5-3-5-8--8---------------------------------------
G |----------------------------------/12-10---------5-7-5-3-5-3-2-3-2-------10----
D |------10---------------7-8-10-(10)------5-0-3-5-7-----------------5-5-5/8------
A |-5-5/8-------------7--8---------------------------------------------------6-5-3
E |--------6-5-3-5-5-8------------------------------------------------------------
G |---------------12-10--5-7-5-3-5-3-2-3-2-------------------------||
D |---------7-8-10-----5-------------------------------------------||
A |--10-9--8------------3-----------------5-5-5-5-5-5-7-8----------||
E |-8--8-------------------------------------------------6-8-5-3-1-||


The symbol  /  means to SLIDE UP with the left hand.
In the bridge,where there are the 12(G) and the 10(D) one above the other,this
DOESN'T mean to play one more time the D-string,but it means that this string
has to be let sound while playing the 12 on the G-string.
Comments and suggestions(either requested or given)are really welcome.
             THIS TAB TRANSLATION WAS MADE BY MAK
 



Submitted by:  Massimo Piacentini (gf.piacentini@selta.inet.it)



Versão 2
--------
Soul To Squeeze
Red Hot Chilli Peppers
Tab By DieR(dier@bol.com.br)

Intro*

G|: 14--------14----14-16-14-------------------------------------------
D|: ----14-16----16----------------------------------------------------
A|: -------------------------------------------------------------------
E|: --------------------------5-5-5-5-5-5-5-5-5-5-5-5-5-5-5-5-5-5-5-...

Verso

G|: -------------------------------------------------
D|: -------------------------------------------------
A|: ---------3-3--2-3-5-7-8---5-5---5-8---8----------
E|: 1-1--3-5----------------6-----5-----6---8--3-6-5\

Verso (Variação)

G|: --------------------------------------------------------------------
D|: --------------------------8-8-8-------------------------------------
A|: ---------3-3--2-3-5-7-8---------5-5---5-8---8----10-----------8-----
E|: 1-1--3-5----------------6-----------5-----6---8-----8-6--8h10---10-8

1º Refrão

G|: ----------------------------------------------------
D|: --7--8-10-----7-------------------------------------
A|: 8----------------8-10--5-5-5-5-7-8-----------10---9-
E|: ----------8------------------------6-6--8h10----8---

G|: --------------------------------------------------
D|: --7--8-10----7-7h8p7------------------------------
A|: 8--------------------8-10---5-5-5-5-7-8-----------
E|: ----------8-----------------------------5-5-5-6-5\

2º Refrão

G|: ------------------------------------------------------
D|: --7--8-10-----7---------------------------------------
A|: 8----------------8-10--5-5-5-5-7-8-------------10-9---
E|: ----------8------------------------6-6-6--8h10--------

G|: -----------------------------------------------
D|: --7--8-10-----10-8-7---------------------------
A|: 8-------------------10\5-5-5-5-7-8-------------
E|: ----------8------------------------5-5-5-6-6-6\

Solo

G|: --------------------------------------------------------
D|: --------------------------8-8-8-------------------------
A|: ---------3-3--2-3-5-7-8---------5-5---5-8---8-----------
E|: 1-1--3-5----------------6-----------5-----6---8---3-6-5\

G|: ---------------------------------------------------------
D|: ---------------------------------------------------------
A|: ---------3-3--2-3-5-7-8---5-5---5-8---8------------------
E|: 1-1--3-5----------------6-----5-----6---8--8-8-8-8-8-8...


Ponte

G|: -7---10/12---------5------5----
D|: ------8/10-----5h7----5h7---7--      x3
A|: 5-----------------------------3
E|: -------------------------------
    sp    p        s   p  s   p s s

G|: -7---10/12------------
D|: ------8/10------------
A|: 5---------------------
E|: ------------5-5-5-6-6\
    sp    p

3º Refrão

G|: ---------------------------------------------------------
D|: --7--8-10-----7-7-8-7-----------------7------------------
A|: 8--------------------8-10\5-5-5-5-7h8---------------10-9-
E|: ----------8-----------------------------6-6-6--8h10------

G|: ---------------10/12-10---------------------------------------------------
D|: ---7---8---10---------------------7-8-10-8-7------------------------------
A|: 8----8---8-----------------7-8-10------------10--5-5-5-5-5-7-8------------
E|: -------------------------8-------------------------------------5-5-5-6-6-6

G|: ---------------10/12-10------------------------------------------------------------
D|: ---7---8---10----------------------7-8/10-7h8p7----------------7-------------------
A|: 8----8---8------------------7-8-10--------------10\5-5-5-5-7h8--------------10--9--
E|: --------------------------8--------------------------------------6-6-6-8h10----8---

G|: ---------10/12-10-----------------------------------------------------||
D|: --7-7-8-----------10--10-12-10--8-10-8--7-8-7-------------------------||
A|: 8---------------------------------------------5-5-5-5-5-7-8-----------||
E|: --------------------8----------------------------------------5-5-5-6\1||



_______________________________________________________
Contribuição: Caio Mac Cord(caiomaccord@hotmail.com)

Comentarios 0

Composición: Anthony Kiedis / Chad Smith / Dominguinhos / Felix Rodriguez / Flea / John Frusciante / Ricardo Augusto / Vincent Ford
Ese no és el compositor? Avisenos.
  1. Sweet Child O' Mine - Guns N' Roses mantiene 2.715 exhibiciones
  2. Wonderwall - Oasis mantiene 2.019 exhibiciones
  3. All Of Me - John Legend mantiene 1.682 exhibiciones
  4. Nothing Else Matters - Metallica mantiene 1.559 exhibiciones
  5. When I Was Your Man - Bruno Mars mantiene 1.550 exhibiciones
  6. Stairway To Heaven - Led Zeppelin mantiene 1.464 exhibiciones
  7. More Than Words - Extreme mantiene 1.394 exhibiciones
  8. Hey Jude - The Beatles mantiene 1.365 exhibiciones
  9. The Scientist - Coldplay mantiene 1.324 exhibiciones
  10. Wake Me Up - Avicii mantiene 1.092 exhibiciones
  1. The Beatles- mantiene 21.481 exhibiciones
  2. Guns N' Roses- mantiene 7.146 exhibiciones
  3. Metallica- mantiene 6.782 exhibiciones
  4. Red Hot Chili Peppers- mantiene 5.259 exhibiciones
  5. Nirvana- mantiene 5.178 exhibiciones
  6. Coldplay- mantiene 5.134 exhibiciones
  7. One Direction- mantiene 4.563 exhibiciones
  8. Bruno Mars- mantiene 4.524 exhibiciones
  9. Oasis- mantiene 4.438 exhibiciones
  10. Green Day- mantiene 3.504 exhibiciones

Acordes y tabs

Aprenda

Studio Sol

©1996 - 2014 Cifra Club · el primero, mayor y más accedido del Brasil · 336 mil músicas · 6.2 millones de personas registradas

publicidad
cerrar