Road Trippin

Red Hot Chili Peppers

 Red Hot Chili Peppers
Tono: G
		
Intro: Em  C B

Em                          C         B
 Road trippin' with my two favorite allies
Em                     C            B
 Fully loaded we got snacks and supplies
Em
 It's time to leave this town
      C             B
It's time to steal away
Em
 Let's go get lost
     C             B
Anywhere in the U.S.A.

Em
Let's go get lost
              C  B
Let's go get lost

Refrão:
Blue you sit so pretty
West of the one
Sparkles light with yellow icing
Just a mirror for the sun
Just a mirror for the sun
Just a mirror for the sun

( Am Bm C G/D )

Am            Bm               C         G/D
These Smiling eyes are just a mirror for

So much as come before those battles lost and won
This life is shining more forever in the sun
Now let us check our heads
And let us check the surf
Staying high and dry's
More trouble than it's worth
In the sun
Just a mirror for the sun
Just a mirror for the sun
Just a mirror for the sun

( Am Bm  C  G/D )

Am            Bm               C         G/D
These Smiling eyes are just a mirror for

( Em A C D )

( Em A C F#º )

( Em A C D )

( Em A C F#º D#º Cº  F#º D#º )

In Big Sur we take some time to linger on
We three hunky dory's got our snakefinger on
Now let us drink the stars
It's time to steal away
Let's go get lost
Right here in the U.S.A

Chorus

These smiling eyes are just a mirror for
These smiling eyes are just a mirror for
Your smiling eyes are just a mirror for

( Em )

Tablatura:

Intro e Verso:

E|----3--------3--------3----------------------------|
B|--------0---------0-----------5------4--------4----|
G|----------------------------------0------0---------|
D|--2---2----2---2----2---2--------------------------|
A|----------------------------3---3----2--2---2---2--|
E|---------------------------------------------------|


Refrão:

E|--0-----------0-------------------------------------7-----7-----|
B|--------1------------3----------3-----5--------5------8-----8---|
G|---------------------------0---------------0------------7-----7-|
D|----------------------------------------------------0-----------|
A|--0--0-----0-----0---2---2---2----2---3--3---3---3--------------|
E|----------------------------------------------------------------|


Solo:


    Em7        A7         C          D#º
E|-------------------------------------------------|
B|-8-------8-------------5-------5--7-------7------|
G|-----7------6-------6------5----------5----------|
D|---9------------5--------5----------7------------|
A|-7-----7------7--------3-----3----6-----6--------|
E|------------5-----5------------------------------|



    Em7        A7         C          F#º
E|----------------------------------5--------5-----|
B|-8-------8-------------5-------5-------4---------|
G|-----7------6-------6------5---------------------|
D|---9------------5--------5--------4--4---4---4---|
A|-7-----7------7--------3-----3-------------------|
E|------------5-----5------------------------------|



    Em7        A7         C          D#º
E|-------------------------------------------------|
B|-8-------8-------------5-------5--7-------7------|
G|-----7------6-------6------5----------5----------|
D|---9------------5--------5----------7------------|
A|-7-----7------7--------3-----3----6-----6--------|
E|------------5-----5------------------------------|



    Em7        A7         C          F#º                                D#º  Cº   Aº  F#º D#º
E|----------------------------------5--------5-------5-------5---------14---11---8---5---2-------|
B|-8-------8-------------5-------5-------4-------4-------4-------4-----13---10---7---4---1-------|
G|-----7------6-------6------5-------------------------------------------------------------------|
D|---9------------5--------5--------4--4---4---4---4---4---4---4---4---13---10---7---4---1-------|
A|-7-----7------7--------3-----3-----------------------------------------------------------------|
E|------------5-----5----------------------------------------------------------------------------|

Comentarios 18

  • Ti@goGK Ti@goGK: Publicado en 29/01/2014 13:07

    sempre achei q fosse + dificíl
    mas poxa, facin

  • farosasdesaron farosasdesaron: Publicado en 02/11/2013 12:19

    facinha D+ deu pra pegar em 30 minutos tudo

  • ufsilva ufsilva: Publicado en 01/08/2013 22:13

    Nooossassinhora, nunca vi tanto número junto fora da aula de matemática O.O

  • paulohlg paulohlg: Publicado en 26/05/2013 11:41

    Vídeo Aula

  • DIEGO DIEGO : Publicado en 11/05/2013 11:34

    Vídeo aula: w w w. y o u t u b e .c o m / watch ? v = - X M W 8 C E _ d x 4 (tudo junto)

  • Hakuna Hakuna: Publicado en 01/02/2013 17:38

    Vídeo aula x.x

  • gilvanmichaeldm gilvanmichaeldm: Publicado en 01/02/2013 11:31

    É dificil tocar igual, mas da pra ir no improviso. Da pra tocar com uma variação do dedilhado de Dust in the Wind - Kansas

  • sthellyth sthellyth: Publicado en 16/01/2013 21:58

    Por Favor a Vídeo Aula,de Road Trippin' Please?

  • guuhshow guuhshow: Publicado en 02/01/2013 16:14

    video aula
    ae!!!

  • silveira silveira: Publicado en 16/12/2012 17:51

    video aula

Exhibiendo 10 de 18 comentarios Mostrar más ver todo »
Composición: Anthony Kiedis / Chad Smith / Dominguinhos / Felix Rodriguez / Flea / John Frusciante / Ricardo Augusto / Vincent Ford
Ese no és el compositor? Avisenos.
Contribución: didoael Correcciónes: leandrocapela e mais 1 »
Exhibir acordes »
publicidad
cerrar