Tono: D
		
VERSE:

e-9~~~~~~~~--9~~~~~~~~-|
b-9~~~~~~~~--10~~~~~~~-|

G-9~~~~~~~~--11~~~~~~~-|

D-9~~~~~~~~--11~~~~~~~-|
A-7~~~~~~~~--9~~~~~~~~-|

E----------------------|


e---------------------|
b---------------------|

G-9-99-7p4---9-99-7p4-|
D---------------------|
A---------------------|
E---------------------|

PRE-CHORUS:

e----------------------|
b----------------------|

G------9-9p7------6-6--|
D--------------------9-|
A--0h7--------0h7------|
E----------------------|


e-------------------------|
b-------------------------|

G------9-9p7------6-6-----|
D---------------------7h9-|
A--0h7--------0h7---------|
E-------------------------|


e----------------------|
b----------------------|

G------9-9p7------6-6--|
D--------------------9-|
A--0h7--------0h7------|
E----------------------|


e--------------------------|
b--------------------------|

G------9-9p7------9--6-----|
D----------------------7h9-|
A--0h7--------0h7----------|
E--------------------------|

CHORUS:

e-----------------------|
b-----------------------|

G-----------------------|
D-----------------------|
A---------------------2-|
E-0--0-3-000--3--5--2---|


e-------------------------|
b-------------------------|

G-------------------------|
D-------------------------|
A-------------------2p0~~-|
E-0--0-3-000--3--2--------|


e-----------------------|
b-----------------------|

G-----------------------|
D-----------------------|
A---------------------2-|
E-0--0-3-000--3--5--2---|


e---------------------|
b---------------------|

G---------------------|
D---------------------|

A---------------------|
E-0--0-3-000--5-55-75-|



BRIDGE/Really awkward guitar solo:
"LEAD" GUITAR PART:

e-12p10-12p0-12p0-12p0--9p7-9p7-9p7-9p7-|
b---------------------------------------|

G---------------------------------------|
D---------------------------------------|
A---------------------------------------|
E---------------------------------------|

"RHYTHM" GUITAR PART:

e---------------|
b---------------|

G-9~~~~---------|
D-7~~~~--11~~~--|
A--------9~~~~--|
E---------------|
106 exhibiciónes

Comentarios 0

Composición: Anthony Kiedis
Ese no és el compositor? Avisenos.
Contribución: [ }=========D
Consigo tocarSin embargo, para tocar esta canción. ¡Sé el primero!
    Aún no puedo reproducir
    Exhibir acordes »
    publicidad
    cerrar