Red Hot Chili Peppers

Can't Stop

1.236 reproducciones
Introdução

Parte 01 ( tocar 7x )

G|--------------------------------------------|
D|--------------------------------------------|
A|-7-7-7-7--7-7-7-7--7-7-7-7--7-7-7-7---------|
E|--------------------------------------------|

Parte 02

G|--------------------------------------------|
D|--------------------------------------------|
A|-7-7-7-7--7-7-7-7--7-7-7-7--7-7-7-7\--------|
E|--------------------------------------------|

Primeira parte

Can't stop...Knock out but boy you better... 

Parte 01

   T P P T P P  P T T P P T P P P
G|---7-9---7-9--x-----7-9---7-9-x-------------|
D|--------------------------------------------|
A|-7-----7--------7-5-----5-------------------|
E|--------------------------------------------|

   T T P P T P P P T T P P   T P  P   P T
G|------------------------------------x-------|
D|-----9-9---9-9-x-----10-10---10-10----------|
A|--------------------------------------5-----|
E|-5-7-----7-------7-8-------8----------------|

Parte 02

   T P P T P P  P T T P P T P P P
G|---7-9---7-9--x-----7-9---7-9-x-------------|
D|--------------------------------------------|
A|-7-----7--------7-5-----5-------------------|
E|--------------------------------------------|

   T T P P T P P P T T P  P  T P   P T   P 
G|---------------------------------x-----12---|
D|-----9-9---9-9-x-----10-10---10-------------|
A|-----------------------------------10-------|
E|-5-7-----7-------7-8-------8----------------|

Parte 03

   T P P T P P  P T T P P T P P P
G|---7-9---7-9--x-----7-9---7-9-x-------------|
D|--------------------------------------------|
A|-7-----7--------7-5-----5-------------------|
E|--------------------------------------------|

   T T P P T P P P T T P P   T P  P   P T
G|------------------------------------x-------|
D|-----9-9---9-9-x-----10-10---10-10----------|
A|--------------------------------------5-----|
E|-5-7-----7-------7-8-------8----------------|

Refrão

The world I love,the tears I drop...

Parte 01

G|--------------------------------------------|
D|----9-10-12--9-8-9-8-10--10-12--------------|
A|-10-----------------------------------------|
E|--------------------------------------------|

G|--------------------------------------------|
D|----9-10-12-12--9-8-9-8-10--12h14-12--------|
A|-10-----------------------------------------|
E|--------------------------------------------| 

Parte 02

G|----------------12--------------------------|
D|----9-10-12--9-----9/10--10h12--------------|
A|-10-----------------------------------------|
E|--------------------------------------------|

G|--------------------------------------------|
D|------9-10-12--9-10-------------------------|
A|-9/10---------------------------------------|
E|--------------------------------------------|

Segunda parte

Sweetheart is bleeding in the snowcone...

Parte 01

   T P P T P P  P T T P P T P P P
G|---7-9---7-9--x-----7-9---7-9-x-------------|
D|--------------------------------------------|
A|-7-----7--------7-5-----5-------------------|
E|--------------------------------------------|

   T T P P T P P P T T P P P T  T  P  P T P
G|---------------------------------12-x---11--|
D|-----9-9---9-9-x-----10-10------------------|
A|------------------------------10------9-----|
E|-5-7-----7-------7-8-------8----------------|

Parte 02

   T P P T P P  P T T P P T P P P
G|---7-9---7-9--x-----7-9---7-9-x-------------|
D|--------------------------------------------|
A|-7-----7--------7-5-----5-------------------|
E|--------------------------------------------|

   T T P P T P P P T T P  P T  P  P  P T    
G|-----------------------------------x--------|
D|-----9-9---9-9-x-----10-10---10-10----------|
A|-------------------------------------5------|
E|-5-7-----7-------7-8-------8----------------|

Parte 03

   T P P T P P  P T T P P T P P P
G|---7-9---7-9--x-----7-9---7-9-x-------------|
D|--------------------------------------------|
A|-7-----7--------7-5-----5-------------------|
E|--------------------------------------------|

    T T P P T P P P T T P  P  T 
G|--------------------------------------------|
D|-----9-9---9-9-x-----10-10------------------|
A|--------------------------------------------|
E|-5-7-----7-------7-8-------8----------------|
  
G|--------------------------------------------|
D|-14-12--------------------------------------|
A|-------12-10-0-7----------------------------|
E|--------------------------------------------|

Parte 04

  T P P T P P  P T T P P T P P P
G|---7-9---7-9--x-----7-9---7-9-x-------------|
D|--------------------------------------------|
A|-7-----7--------7-5-----5-------------------|
E|--------------------------------------------|

   T T P P T P P P T T P  P  T P  P   P T
G|------------------------------------x-------|
D|-----9-9---9-9-x-----10-10---10-10----------|
A|--------------------------------------5-----|
E|-5-7-----7-------7-8-------8----------------|

Segundo Refrão

The world I love,the tears I drop...

Parte 01

G|---------------12---12----------------------|
D|----9-10-12--9----9----9h10--14-12-10-------|
A|-10-----------------------------------------|
E|--------------------------------------------|

G|--------------------------------------------|
D|----9-10-12-12--9-9-10--12h14-12------------|
A|-10------------------------------14-12------|
E|--------------------------------------------| 

Parte 02

G|--------------------------------------------|
D|----9-10-12--9-9-12-10--10-9----------------|
A|-10--------------------------12-------------|
E|--------------------------------------------|

G|--------------------------------------------|
D|----9-10-12--9-10---------------------------|
A|-10-----------------------------------------|
E|--------------------------------------------|

Terceira parte

Wait a minute I'm passing out...

Parte 01

G|-----9----14--------------------------------|
D|-------------12-0-0---9----12-10------------|
A|-7-----7------------------------------------|
E|--------------------7---7--------8-8--------|

G|----9-9----7--------------------------------|
D|-------------0-0---9-9----12-10---10--------|
A|-7------7-----------------------------------|
E|-----------------7-----7--------8-----------|

Parte 02

G|-------9-9----14----------------------------|
D|-----------------0-0-0---9-9---12-10---10---|
A|-5-6/7-----7--------------------------------|
E|-----------------------7-----7-------8------|

G|------------9-----7-------------------------|
D|-5h7----------------0-0---9-9---12-10-------|
A|-----5-6-7----7-----------------------------|
E|------------------------7-----7-------8-8---|

Quarta parte – Solo bass

Parte 01

   T P P T P P  P T T P P T P P
G|---7-9---7-9--x-----7-9---7-9---------------|
D|--------------------------------------------|
A|-7-----7--------7-5-----5-------------------|
E|--------------------------------------------|

   P T T P P T P P  P T T  P T T P
G|-x-----------------------x------------------|
D|-------9-9---9-9--x------------10-----------|
A|--------------------------------------------|
E|---5-7-----7--------7-8----8-8--------------|

Parte 02

G|--------------------------------------------|
D|-------12-----------------------------------|
A|-12h14----10h12-10--------------------------|
E|--------------------------------------------|

Quinta parte 

Can't stop addicted to the shin dig...

Parte 01

     P P T P P  P T T P P T P P P
G|---7-9---7-9--x-----7-9---7-9-x-------------|
D|--------------------------------------------|
A|-7-----7--------7-5-----5-------------------|
E|--------------------------------------------|

   T T P P T P P P T T P  P  T T  P  P T T  P
G|--------------------------------12-x---14-x-|
D|-----9-9---9-9-x-----10-10------------------|
A|-----------------------------10------12-----|
E|-5-7-----7-------7-8-------8----------------|

Parte 02

   T P P T P P  P T T P P T P P P
G|---7-9---7-9--x-----7-9---7-9-x-------------|
D|--------------------------------------------|
A|-7-----7--------7-5-----5-------------------|
E|--------------------------------------------|

   T T P P T P P P T T P  P  T P  P   P T 
G|------------------------------------x-------|
D|-----9-9---9-9-x-----10-10---10-10----------|
A|--------------------------------------5-----|
E|-5-7-----7-------7-8-------8----------------|

Parte 03

   T P P T P P  P T T P P T P P P
G|---7-9---7-9--x-----7-9---7-9-x-------------|
D|--------------------------------------------|
A|-7-----7--------7-5-----5-------------------|
E|--------------------------------------------|

   T T P P T P P P T T P  P  T P  P  T   P
G|--------------------------------------------|
D|-----9-9---9-9-x-----10-10---10-10-----5----|
A|-----------------------------------5h7------|
E|-5-7-----7-------7-8-------8----------------|

Sexta parte Final

Kick start the golden generator...

Parte 01

   T P P T P P  P T T P P T P P P
G|---7-9---7-9--x-----7-9---7-9-x-------------|
D|--------------------------------------------|
A|-7-----7--------7-5-----5-------------------|
E|--------------------------------------------|

   T T P P T P P P T T P  P  T P  P   P T
G|------------------------------------x-------|
D|-----9-9---9-9-x-----10-10---10-10----------|
A|--------------------------------------5-----|
E|-5-7-----7-------7-8-------8----------------|

Parte 02

   T P P T P P  P T T P P T P P
G|---7-9---7-9--x-----7-9---7-9---------------|
D|--------------------------------------------|
A|-7-----7--------7-5-----5-------------------|
E|--------------------------------------------|

   P T T P P T P P P T T P  P  T P  P  T P  T
G|-x------------------------------------------|
D|-------9-9---9-9-x-----10-10---10-10---10---|
A|--------------------------------------------|
E|---5-7-----7-------7-8-------8-------8----8-|
    Composición: Anthony Kiedis / Chad Smith / Flea / John FruscianteColaboración y revision:
    • Reginaldo

    Comentarios 20

    • Werick Werick: Publicado en 01/04/2015 14:41

      essa merece video aula!

    • Donavan Donavan: Publicado en 25/10/2014 15:25

      video aula

    • Gabriel Gabriel: Publicado en 15/08/2014 17:31

      Facinho !!

    • Leonardo Leonardo: Publicado en 09/04/2014 14:07

      Vídeo aula!

    • lucas lucas: Publicado en 21/01/2014 11:23

      Ai nosso amigo Marks... quem sabe uma video aula né, porq meio dificiu sabe,,,

    • Leonardo Leonardo: Publicado en 11/01/2014 19:20

      vídeo aula!!

    • Guilherme Guilherme: Publicado en 06/12/2013 13:25

      Video aula dessa música .. Flea ehh phoda ....

    • roadrunner1 roadrunner1: Publicado en 28/08/2013 21:09

      Filipe Marks, tá afim de fazer uma vídeo aula dessa música não? Só se vc estiver afim sabe rsrs

    • rodrigo rodrigo: Publicado en 02/03/2013 19:45

      video aula pf

    • momelis momelis: Publicado en 29/12/2012 09:39

      Aula por favor Filipe Marks

    Exhibiendo 10 de 20 comentarios Mostrar más ver todo »
    0:00 / 0:00

    Capitulos

      1 versão de bateríareproduccionescontribuición y correción
      1 versão de partiturasformatodownloadscontribuición
      play/pausefechar subir/bajar velocidad
      6ª cuerda E5ª cuerda A4ª cuerda D3ª cuerda G2ª cuerda B1ª cuerda E
        acordes
        versão revisada
        Reginaldo instrutor de contrabajo
        publicidad
        cerrar
        ok