Tono: F
		
Intro:

      F5                      C/E                    A5
E|----------------------------------------------------------------------------------|
B|----------------------------------------------------------------------------------|
G|----------------------------------------------------------------------------------|
D|-10-10-10-10-10-10-10-10-10-10-10-10-10-10-10-10----------------------------------|
A|--8--8--8--8--8--8--8--8--7--7--7--7--7--7--7--7-7-7-7-7-7-7-7-7-7-7-7-7-7-7-7-7--|
E|-------------------------------------------------5-5-5-5-5-5-5-5-5-5-5-5-5-5-5-5--|


Primeiro Refrão:

    F5                         C/E
E|-------------------------|-------------------------|
B|-------------------------|-------------------------|
G|-------------------------|-------------------------|
D|-10-10-10-10-10-10-10-10-|-10-10-10-10-10-10-10-10-|
A|--8--8--8--8--8--8--8--8-|--7--7--7--7--7--7--7--7-|
E|-------------------------|-------------------------|


     A5/E                      A5/E
E|-------------------------|---------|
B|-------------------------|---------|
G|-------------------------|-9-9-7-7-|
D|-7-7-7-7-7-7-7-7-7-7-7-7-|---------|
A|-7-7-7-7-7-7-7-7-7-7-7-7-|---------|
E|-------------------------|---------|


    F5                        C/E
E|-------------------------|-------------------------|
B|-------------------------|-------------------------|
G|-------------------------|-------------------------|
D|-10-10-10-10-10-10-10-10-|-10-10-10-10-10-10-10-10-|
A|--8--8--8--8--8--8--8--8-|--7--7--7--7--7--7--7--7-|
E|-------------------------|-------------------------|


     A5
E|-----------------|-----------------|
B|-----------------|-----------------|
G|-----------------|-----------------|
D|-----------------|-----------------|
A|-7-7-7-7-7-7-7-7-|-7-7-7-7-7-7-7-7-|
E|-5-5-5-5-5-5-5-5-|-5-5-5-5-5-5-5-5-|


   F5                        C/E
E|-------------------------|-------------------------|
B|-------------------------|-------------------------|
G|-------------------------|-------------------------|
D|-10-10-10-10-10-10-10-10-|-10-10-10-10-10-10-10-10-|
A|--8--8--8--8--8--8--8--8-|--7--7--7--7--7--7--7--7-|
E|-------------------------|-------------------------|


     A5/E                    A5
E|-----------------------|------------------|
B|-----------------------|--10-10-10-10-10--|
G|-----------------------|---9--9--9--9--9--|
D|-7-7-7-7-7-7-7-7-7-7-7-|---7--7--7--7--7--|
A|-7-7-7-7-7-7-7-7-7-7-7-|------------------|
E|-----------------------|------------------|



F5                           C/E
Standing in line to see the show tonight
               A5/E               A5/E
And there's a light on, heavy glow
F5             C/E
By the way i tried to say
     A5
I'd be there, waiting for
F5                        C5
Dani the girl is singing songs to me
              A5/E   A5*
Beneath the marquee, overload

(Primeira Parte)
Riff 1:


E|-x-x-x-x-x-x-x-x-x-x-x-x-x-x-x-x-|-x-x-x-x-x-x-x-x-x-x-x-x-x-x-x-x-|
B|-x-x-x-x-x-x-x-x-x-x-x-x-x-x-x-x-|-x-x-x-x-x-x-x-x-x-x-x-x-x-x-x-x-|
G|-x-x-x-x-x-x-x-x-x-x-x-x-x-x-x-x-|-x-x-x-x-x-x-x-x-x-x-x-x-x-x-x-x-|
D|-x-x-x-x-x-x-x-x-x-x-x-x-x-x-x-x-|-x-x-x-x-x-x-x-x-x-x-x-x-x-x-x-x-|
A|-x-x-x-x-x-x-x-x-x-x-x-x-x-x-x-x-|-x-x-x-x-x-x-x-x-x-x-x-x-x-x-x-x-|
E|-x-x-x-x-x-x-x-x-x-x-x-x-x-x-x-x-|-x-x-x-x-x-x-x-x-x-x-x-x-x-x-x-x-|



E|----------------------|
B|-13-x-13-x-13-x-13----|
G|--x-x--x-x--x-x--x----|
D|-10-x-10-x-10-x-10----|
A|----------------------|
E|----------------------|


    Dm
E|-------x-x-x-x-x-x-x-x-x-x-x-x-|-------x-x-x-x-x-x-x-x-x-x-x-x-|
B|-10-10-x-x-x-x-x-x-x-x-x-x-x-x-|-10-10-x-x-x-x-x-x-x-x-x-x-x-x-|
G|-10-10-x-x-x-x-x-x-x-x-x-x-x-x-|-10-10-x-x-x-x-x-x-x-x-x-x-x-x-|
D|-12-12-x-x-x-x-x-x-x-x-x-x-x-x-|-12-12-x-x-x-x-x-x-x-x-x-x-x-x-|
A|-------x-x-x-x-x-x-x-x-x-x-x-x-|-------x-x-x-x-x-x-x-x-x-x-x-x-|
E|-------x-x-x-x-x-x-x-x-x-x-x-x-|-------x-x-x-x-x-x-x-x-x-x-x-x-|



E|-------x-x-x-x-x-x-x-x-x-x-x-x-|-------x-x-x-x-x-------------------|
B|-10-10-x-x-x-x-x-x-x-x-x-x-x-x-|-10-10-x-x-x-x-x-13-x-13-x-13-x-13-|
G|-10-10-x-x-x-x-x-x-x-x-x-x-x-x-|-10-10-x-x-x-x-x--x-x--x-x--x-x--x-|
D|-12-12-x-x-x-x-x-x-x-x-x-x-x-x-|-12-12-x-x-x-x-x-10-x-10-x-10-x-10-|
A|-------x-x-x-x-x-x-x-x-x-x-x-x-|-------x-x-x-x-x-------------------|
E|-------x-x-x-x-x-x-x-x-x-x-x-x-|-------x-x-x-x-x-------------------|



E|-------x-x-x-x-x-x-x-x-x-x-x-x-|-------x-x-x-x-x-x-x-x-x-x-x-x-|
B|-10-10-x-x-x-x-x-x-x-x-x-x-x-x-|-10-10-x-x-x-x-x-x-x-x-x-x-x-x-|
G|-10-10-x-x-x-x-x-x-x-x-x-x-x-x-|-10-10-x-x-x-x-x-x-x-x-x-x-x-x-|
D|-12-12-x-x-x-x-x-x-x-x-x-x-x-x-|-12-12-x-x-x-x-x-x-x-x-x-x-x-x-|
A|-------x-x-x-x-x-x-x-x-x-x-x-x-|-------x-x-x-x-x-x-x-x-x-x-x-x-|
E|-------x-x-x-x-x-x-x-x-x-x-x-x-|-------x-x-x-x-x-x-x-x-x-x-x-x-|



E|-------x-x-x-x-x-x-x-x-x-x-x-x-|-------x-x-x-x-------------------------|
B|-10-10-x-x-x-x-x-x-x-x-x-x-x-x-|-10-10-x-x-x-x-10-10-10-10-10-10-10-10-|
G|-10-10-x-x-x-x-x-x-x-x-x-x-x-x-|-10-10-x-x-x-x-10-10-10-10-10-10-10-10-|
D|-12-12-x-x-x-x-x-x-x-x-x-x-x-x-|-12-12-x-x-x-x-12-12-12-12-12-12-12-12-|
A|-------x-x-x-x-x-x-x-x-x-x-x-x-|-------x-x-x-x-------------------------|
E|-------x-x-x-x-x-x-x-x-x-x-x-x-|-------x-x-x-x-------------------------|



Steak knife, card shark, con job, boot cut
Skin that flick she's such a little dj
Get there quick by street but not the freeway
Turn that trick to make a little leeway
Beat that nic but not the way that we play
Dogtown, blood bath, rib cage, soft tail

Segundo Refrão:
F5                           C/E
Standing in line to see the show tonight
               A5
And there's a light on, heavy glow
F5            C/E
By the way i tried to say
    A5        Bb
I'd be there, waiting for

(Riff)

Black jack, dope dick, pawn shop, quick pick
Kiss that dyke i know you want to hold one
Not on strike but i'm about to bowl one
Bite that mic i know you never stole one
Girls that like a story, so i told one
Song bird, main line, cash back, hard top

(Primeiro Refrão)

F5                           C/E
Standing in line to see the show tonight
               A5/E               A5/E
And there's a light on, heavy glow
F5             C/E
By the way i tried to say
     A5
I'd be there, waiting for
F5                        C5
Dani the girl is singing songs to me
              A5/E   A5*
Beneath the marquee, overload

(Riff 2)

E|-------------|-------------|-------------|-----------------------------|
B|-10-10-------|-10-10-------|-10-10-------|-10-10---x-13-x-13-x-13-x-13-|
G|-10-10-------|-10-10-------|-10-10-------|-10-10---x--x-x--x-x--x-x--x-|
D|-12-12-------|-12-12-------|-12-12-------|-12-12---x-10-x-10-x-10-x-10-|
A|-------------|-------------|-------------|-----------------------------|
E|-------------|-------------|-------------|-----------------------------|



(Riff 1)

Oh ah, kissed ya then i missed ya

(Segundo Refrão)

F5                           C/E
Standing in line to see the show tonight
               A5
And there's a light on, heavy glow
F             C
By the way i tried to say
    Dm        Bb
I'd be there, waiting for

F5                         C/E
Dani the girl is singing songs to me
             A5
Beneath the marquee, of her soul
F5             C/E
By the way i tried to say
    A5        Bb
I know you, from before

(Segundo Refrão)

F5                           C/E
Standing in line to see the show tonight
               A5
And there's a light on, heavy glow
F5            C/E
By the way i tried to say
    A5        Bb            Dm
I'd be there,
Texto Columnas
Alterar tom ½ tono ½ tono
sintonización acordes esconder tabs más »

Comentarios 70

  • wictor.gomes.96 wictor.gomes.96: Publicado en 25/03/2014 13:34

    e essa video aula....

  • lukewilkshire.lukwill lukewilkshire.lukwill: Publicado en 16/01/2014 20:14

    Nossa meu, tô esperando a meses essa vídeo aula

    • Gabriel Gabriel: Publicado en 11/02/2014 15:46

      Po cara essa música nem precisa de vídeo-aula né.

    • lukewilkshire.lukwill lukewilkshire.lukwill: Publicado en 13/03/2014 22:13

      mas seria bom

  • silvio.g.forneasjunior silvio.g.forneasjunior: Publicado en 29/09/2013 19:49

    MUITO FACIL

  • icarozin123 icarozin123: Publicado en 13/07/2013 13:30

    Como assim sem video aula?

  • Guilherme Guilherme: Publicado en 27/05/2013 19:30

    Pra mim tanto faiz, só queria o intro, eu n vo consegui cantá essa musica msm

    • Guilherme Guilherme: Publicado en 08/06/2013 20:18

      Consegui (:

    • rodrigo rodrigo: Publicado en 12/06/2013 14:25

      cantar*

  • thainagc thainagc: Publicado en 14/02/2013 14:22

    Video Aula dessa musica por favorrrr

Exhibiendo 10 de 70 comentarios Mostrar más ver todo »
Composición: Anthony Kiedis / Chad Smith / Dominguinhos / Felix Rodriguez / Flea / John Frusciante / Ricardo Augusto / Vincent Ford
Ese no és el compositor? Avisenos.
Contribución: Bolão Correcciónes: lukewilkshire.lukwill , zeti25 e mais 4 »
  1. Sweet Child O' Mine - Guns N' Roses mantiene 2.760 exhibiciones
  2. Wonderwall - Oasis mantiene 2.017 exhibiciones
  3. When I Was Your Man - Bruno Mars mantiene 1.626 exhibiciones
  4. Nothing Else Matters - Metallica mantiene 1.559 exhibiciones
  5. Stairway To Heaven - Led Zeppelin mantiene 1.531 exhibiciones
  6. All Of Me - John Legend mantiene 1.459 exhibiciones
  7. Hey Jude - The Beatles mantiene 1.430 exhibiciones
  8. More Than Words - Extreme mantiene 1.391 exhibiciones
  9. The Scientist - Coldplay mantiene 1.319 exhibiciones
  10. Wake Me Up - Avicii mantiene 1.129 exhibiciones
  1. The Beatles- mantiene 21.059 exhibiciones
  2. Guns N' Roses- mantiene 6.915 exhibiciones
  3. Metallica- mantiene 6.777 exhibiciones
  4. Coldplay- mantiene 5.157 exhibiciones
  5. One Direction- mantiene 4.927 exhibiciones
  6. Nirvana- mantiene 4.909 exhibiciones
  7. Red Hot Chili Peppers- mantiene 4.859 exhibiciones
  8. Bruno Mars- mantiene 4.718 exhibiciones
  9. Oasis- mantiene 4.423 exhibiciones
  10. Green Day- mantiene 3.522 exhibiciones
Exhibir acordes »

Acordes y tabs

Aprenda

Studio Sol

©1996 - 2014 Cifra Club · el primero, mayor y más accedido del Brasil · 335 mil músicas · 6.2 millones de personas registradas

publicidad
cerrar