Rebelde

RBD

 RBD
Tono: G
		
Intro: G D/F# Em C

Pequena Frase antes de começar a Música


E|--------------------|
B|---------1----------|
G|--------------0-----|
D|----0h2-----------2-|
A|--------------------|
E|--------------------|




 G                       D/F#
Mientras mi mente viaja donde tú estás
 Em               C
   mi padre grita otra vez
 G                     D/F#
que me malgasto mi futuro y su paz
 Em              C
   con mi manera de ser.
 D                      C
Aunque lo escucho ya estoy lejos de aquí
 D                      C
cierro los ojos y ya estoy pensando en ti.

-CORO-

 Y soy rebelde, cuando no sigo a los demás
        Em                C
y soy rebelde, cuando te quiero hasta rabiar
         G             D/F#
y soy rebelde, cuando no pienso igual que ayer
        Em               C
y soy rebelde, cuando me juego hasta la piel
         G     D/F#      Em    C
si soy rebelde,  es que quizás nadie me conoce bien.


 G                    D/F#
Alguno de estos días voy a escapar
 Em                         C
para jugarme todo por un sueño
 G                   D/F#
todo en la vida es a perder o ganar
 Em                                 C
hay que apostar, hay que apostar sin miedo
 D                   C
no importa mucho lo que digan de mi,
  D                   C
cierro los ojos y ya estoy pensando en ti

-CORO-

  Y soy rebelde, cuando no sigo a los demás
        Em                C
y soy rebelde, cuando te quiero hasta rabiar
         G             D/F#
y soy rebelde, cuando no pienso igual que ayer
        Em               C
y soy rebelde, cuando me juego hasta la piel
         G     D/F#      Em    C
si soy rebelde,  es que quizás nadie me conoce bien.

Base do solo: G D/F# Em C (2 vezes)


E|---------------------|
B|---------------------|
G|--5h7p5----------------| fazer isso com Tapping
D|---------------------|
A|---------------------|
E|---------------------|



E|---------------------------------------------------------|
B|-/8~---8-8/10-8-7-7~---7-7-8-8/10------------7---7-10-8~-|
G|------------------------------------9~---7h9---9---------|
D|---------------------------------------------------------|
A|---------------------------------------------------------|
E|---------------------------------------------------------|



E|-8-7-8-8/17-15-14-14~-14-15-15/17-15-14-----|
B|----------------------------------------15~-|
G|--------------------------------------------|
D|--------------------------------------------|
A|--------------------------------------------|
E|--------------------------------------------|



E|-----------------------------------------------------------------|
B|-15-15/17-15-13-12-13-12h13p12-----------------------------------|
G|-------------------------------14-12~---------12----12h14p12-14~-|
D|----------------------------------------12h14----14--------------|
A|-----------------------------------------------------------------|
E|-----------------------------------------------------------------|


 D                    C
No importa mucho lo que digan de mi,
 D                 C
cierro los ojos y ya estoy pensando en ti.

-CORO-

Y soy rebelde, cuando no sigo a los demás
        Em                C
y soy rebelde, cuando te quiero hasta rabiar
         G             D/F#
y soy rebelde, cuando no pienso igual que ayer
        Em               C
y soy rebelde, cuando me juego hasta la piel
         G
si soy rebelde.

Comentarios 5

  • Ana Maria Ana Maria: Publicado en 28/09/2014 15:56

    amo essa musica :)

  • Mateus Mateus: Publicado en 21/03/2014 21:45

    poh pq num faz tem tanta musica boa sem video aula e essa é uma delas :\

  • jonny.galdino jonny.galdino: Publicado en 23/11/2013 10:23

    kkk verdade

  • mah mah: Publicado en 26/03/2012 16:51

    PODERIAM**

  • mah mah: Publicado en 26/03/2012 16:50

    BEM QUE PODERIM FAZER UMA VIDEO AULA DESSA MÚSICA SERIA DEMAIS!!! FAZ AÊ CIFRA CLUB

Composición: Carlos Lara
Ese no és el compositor? Avisenos.
Contribución: aninha Correcciónes: Thiago , Rach__ e mais 3 »
Exhibir acordes »
publicidad
cerrar