Rebelde

RBD

 RBD
Tono: G
		
Intro: G D/F# Em C

Riff 1: do final do Acorde C ( mudança para G )


E|--------------------|
B|---------1----------|
G|--------------0-----|
D|----0h2-----------2-|
A|--------------------|
E|--------------------|


Riffzinho

SE PREFIRIR FAÇA C5


E|-----------|
B|-----------|
G|-----------|
D|-----2-----|
A|-----2-----|
E|-----3-----|


Riff 2


E|----0----0----------|
B|------------1-----0-|
G|--0---0--------0----|
D|--------------------|
A|--------------------|
E|--------------------|


 G                       D/F#
Mientras mi mente viaja donde tú estás
 Em               C
   mi padre grita otra vez
 G                     D/F#
que me malgasto mi futuro y su paz
 Em              C
   con mi manera de ser.
 D                      C Riff 1
Aunque lo escucho ya estoy lejos de aquí
 D                      C
cierro los ojos y ya estoy pensando en ti.

-CORO-

         G5                D5
Y soy rebelde, cuando no sigo a los demás
          Em  Riffzinho     D5
y soy rebelde, cuando te quiero hasta rabiar
           G5                D5
y soy rebelde, cuando no pienso igual que ayer
          Em  Riffzinho     D5
y soy rebelde, cuando me juego hasta la piel
      C9  G/B                   Am7 D
si soy rebelde,  es que quizás nadie me conoce bien.

 G                    D/F#
Alguno de estos días voy a escapar
 Em                         C Riff 2
para jugarme todo por un sueño
 G                   D/F#
todo en la vida es a perder o ganar
 Em                                 C
hay que apostar, hay que apostar sin miedo
 D                   C
no importa mucho lo que digan de mi,
  D                   C
cierro los ojos y ya estoy pensando en ti

-CORO-

         G5                D5
Y soy rebelde, cuando no sigo a los demás
          Em  Riffzinho     D5
y soy rebelde, cuando te quiero hasta rabiar
           G5                D5
y soy rebelde, cuando no pienso igual que ayer
           Em  Riffzinho     D5
y soy rebelde, cuando me juego hasta la piel
       C  ( Segura Um Pouco )
nsi soy rebelde,  es que quizás...

Base do solo: G D/F# Em C (2 vezes)


E|---------------------|
B|---------------------|
G|--0h2----------------| faz esse riff pelo menos umas 20 vezes
D|---------------------|
A|---------------------|
E|---------------------|



E|---------------------------------------------------------|
B|-/8~---8-8/10-8-7-7~---7-7-8-8/10------------7---7-10-8~-|
G|------------------------------------9~---7h9---9---------|
D|---------------------------------------------------------|
A|---------------------------------------------------------|
E|---------------------------------------------------------|



E|-8-7-8-8/17-15-14-14~-14-15-15/17-15-14-----|
B|----------------------------------------15~-|
G|--------------------------------------------|
D|--------------------------------------------|
A|--------------------------------------------|
E|--------------------------------------------|



E|-----------------------------------------------------------------|
B|-15-15/17-15-13-12-13-12h13p12-----------------------------------|
G|-------------------------------14-12~---------12----12h14p12-14~-|
D|----------------------------------------12h14----14--------------|
A|-----------------------------------------------------------------|
E|-----------------------------------------------------------------|


 D                    C
No importa mucho lo que digan de mi,
 D                 C
cierro los ojos y ya estoy pensando en ti.

-CORO-
           G5                D5
Y soy rebelde, cuando no sigo a los demás
           Em  Riffzinho     D5
y soy rebelde, cuando te quiero hasta rabiar
           G5                D5
y soy rebelde, cuando no pienso igual que ayer
           Em  Riffzinho     D5
y soy rebelde, cuando me juego hasta la piel.
           G5               D5
Y soy rebelde, cuando no sigo a los demás
           Em  Riffzinho     D5
y soy rebelde, cuando te quiero hasta rabiar
           G5                D5
y soy rebelde, cuando no pienso igual que ayer
            Em  Riffzinho     D5
y soy rebelde, cuando me juego hasta la piel.

Y soy rebelde.... "
Texto Columnas
Alterar tom ½ tono ½ tono
sintonización acordes esconder tabs más »

Comentarios (4)

  • Mateus Mateus: Publicado en 21/03/2014 21:45

    poh pq num faz tem tanta musica boa sem video aula e essa é uma delas :\

  • jonny.galdino jonny.galdino: Publicado en 23/11/2013 10:23

    kkk verdade

  • mah mah: Publicado en 26/03/2012 16:51

    PODERIAM**

  • mah mah: Publicado en 26/03/2012 16:50

    BEM QUE PODERIM FAZER UMA VIDEO AULA DESSA MÚSICA SERIA DEMAIS!!! FAZ AÊ CIFRA CLUB

Composición: Carlos Lara
Ese no és el compositor? Avisenos.
Contribución: aninha Correcciónes: amanda.oliveirapilonetto , frodex e mais 2 »
  1. Sweet Child O' Mine - Guns N' Roses mantiene 2.925 exhibiciones
  2. Wonderwall - Oasis mantiene 2.186 exhibiciones
  3. Hey Jude - The Beatles mantiene 1.958 exhibiciones
  4. Nothing Else Matters - Metallica mantiene 1.804 exhibiciones
  5. Wake Me Up - Avicii mantiene 1.773 exhibiciones
  6. Stairway To Heaven - Led Zeppelin mantiene 1.661 exhibiciones
  7. When I Was Your Man - Bruno Mars mantiene 1.589 exhibiciones
  8. More Than Words - Extreme mantiene 1.450 exhibiciones
  9. Get Lucky - Daft Punk mantiene 1.367 exhibiciones
  10. Don't Let Me Down - The Beatles mantiene 1.360 exhibiciones
  1. The Beatles- mantiene 25.078 exhibiciones
  2. Metallica- mantiene 8.619 exhibiciones
  3. Guns N' Roses- mantiene 7.929 exhibiciones
  4. Nirvana- mantiene 6.626 exhibiciones
  5. Red Hot Chili Peppers- mantiene 5.725 exhibiciones
  6. One Direction- mantiene 5.420 exhibiciones
  7. Bruno Mars- mantiene 4.865 exhibiciones
  8. Coldplay- mantiene 4.745 exhibiciones
  9. Oasis- mantiene 4.554 exhibiciones
  10. Green Day- mantiene 3.603 exhibiciones
Exhibir acordes »

Acordes y tabs

Aprenda

Studio Sol

©1996 - 2014 Cifra Club · el primero, mayor y más accedido del Brasil · 329 mil músicas · 5.9 millones de personas registradas

publicidad
cerrar