Pet Sematary

Ramones

 Ramones
Tono: F
		
VERSÃO 1
-======-

  INTRO

    D5      C/E
E|----------------------|----------|
B|------3----------1----|------1---|
G|----2--------0--------|----2-----|
D|--0-------2-----------|--3-------|
A|----------------------|----------|
E|----------------------|----------|


For the part below I'm only indicating the chords. Pick the CD and follow
the beat. This part repeats with different lyrics in all verses.

C5                     D5
And the night when the cold wind blows
C5        D5                  Bb5    C
No one  cares      No-body  knows

Dm                F                C        Bb
I don't wanna be buried       In a pet sematary
Dm               C             Bb     C
I don't want to live my life again


E|------------|------------|------------|------------|------------|---------|
B|------------|------------|------------|------------|------------|---------|
G|----/-------\------------|------------|------------|----/-------\---------|
D|---/--------|\-----------|--0---------|--0--2--3---|---/--------|\--------|
A|--1---------|-1----------|------------|------------|--1---------|-1-------|
E|------------|------------|------------|------------|------------|---------|

 |

    Bb5   A5                     D5                     Bb5   A5
E|------------|------------|------------|------------|------------|---------|
B|------------|------------|------------|------------|------------|---------|
G|------------|---Repeat---|----7-------|---Repeat---|------------|--Repeat-|
D|-8-8-8-7/8-8|-----as-----|----7-------|---the D5---|-8-8-8-7/8-8|--the|----|
A|-8-8-8-7/8-8|---previous-|----5-------|------------|-8-8-8-7/8-8|--Bb5 &--|
E|-6-6-6-5/6-6|------------|------------|------------|-6-6-6-5/6-6|--A5-----|




E|------------|------------|------------|------------|------------|---------|
B|------------|------------|-----/------|\-----------|------------|---------|
G|------------|------------|---/--------|--\---------|------------|---------|
D|------------|--5--3--2---|--3---------|---3--------|------------|---------|
A|-3----------|--7--5--3---|--5---------|---5--------|------------|---------|
E|------------|------------|------------|------------|------------|---------|

 |

     C5
E|------------|------------|------------|------------|------------|---------|
B|------------|------------|------------|------------|------------|---------|
G|--5---------|--Repeat----|--Here the second guitar goes---------|---------|
D|--5---------|--the C5----|--back to the verse|------|------------|---------|
A|--3---------|------------|------------|------------|------------|---------|
E|------------|------------|------------|------------|------------|---------|



    C5     D5    Bb5    Dm      F     C     Bb
E|------|------|-----|--10--|---8--|---8--|--6--|------|
B|------|------|-----|--10--|--10--|---8--|--6--|------|
G|------|------|-----|--10--|--10--|---9--|--7--|------|
D|--10--|--12--|--8--|--12--|--10--|--10--|--8--|------|
A|--10--|--12--|--8--|--12--|---8--|--10--|--8--|------|
E|---8--|--10--|--6--|--10--|------|---8--|--6--|------|


Under the arc of a weather stain boards
Ancient goblins, and warlords
Come out of the ground, not making a sound
The smell of death is all around.

And the night when the cold wind blows
No one cares, nobody knows

I don't wanna be buried
In a pet sematary
I don't want to live my life again

Follow Victor to the sacred place
This ain't a dream, I can't scape
Molars and fangs, the clicking of bones
Spirits moaning among the tombstones

And the night, when the moon is bright
Someone cries, something ain't right

The moon is full, the air is still
All of a sudden I feel a chill
Victor is grinning, flesh rotting away
Skeletons dance, I curse this day

And the night, when the wolves cry out
Listen close and you can hear me shout

VERSÃO 2
-======-

(intro e versos)

    D5       C/E
E|------------------------------|
B|-----3-----------1---------1--|
G|--------------0-----0---------|  (2x intro)
D|--0-----0--2------------3-----| 
A|------------------------------| 
E|------------------------------|


(verso 1) riff
Under the arc of a weather stain boards
Ancient goblins, and warlords
Come out of the ground, not making a sound
The smell of death is all around

(ponte 1)
C                      D
And the night when the cold wind blows
C        D              Bb    C
No one cares, no-body knows

(refrão 2x)
D                 F          C        Bb
I don't wanna be buried in a pet sematary
D                C             Bb     C
I don't want to live my life again

(verso 2) riff 
Follow Victor to the sacred place
This ain't a dream, I can't escape
Molars and fangs, the clicking of bones
Spirits moaning among the tombstones

(ponte 2)
C                      D
And the night, when the moon is bright
C        D              Bb    C
Someone cries, something ain't right

(refrão 2x)
D                 F          C        Bb
I don't wanna be buried in a pet sematary
D                C             Bb     C
I don't want to live my life again

(solo)

    Bb   D              Bb   C
E|--------------------------------------------|
B|--------------------------------------------|
G|--------------------------------------------|
D|-------0----0--2--3-------------5--3--2-----|
A|--1-------------------1----3----7--5--3-----|
E|--------------------------------------------|


(verso 3) riff 
The moon is full, the air is still
All of a sudden I feel a chill
Victor is grinning, flesh rotting away
Skeletons dance, I curse this day

(ponte 3)
C                      D
And the night, when the wolves cry out
C        D              Bb    C
Listen close and you can hear me shout

(refrão 2x)
D                 F          C        Bb
I don't wanna be buried in a pet sematary
D                C             Bb     C
I don't want to live my life again . . .

(final)

E|----------------------|
B|----------------------|
G|----------------------|
D|-0--2-3-5-0--7-5-3-0--| 
A|----------------------|
E|----------------------|


   D                 F          C        Bb   
   Oh no,           oh oh no...               
   D                C             Bb     C       (3x)
   I don't want to live my life...again...
Texto Columnas
Alterar tom ½ tono ½ tono
sintonización acordes esconder tabs más »

Comentarios 15

  • Gabriel Gabriel: Publicado en 25/05/2014 21:32

    video aula

  • lucas.frontzek lucas.frontzek: Publicado en 12/03/2014 10:17

    Eu já pedi a vídeo aula dessa música só esperar

  • Riquecamargo Riquecamargo: Publicado en 29/12/2013 14:02

    O Ritmo que toco é
    D C F (Tokndo2x p/baixo, quando entra o refrão tok rápido 4 vezes +1x Bp
    dai refrão fika D C F Bp sempre p/baixo.

  • niuulook niuulook: Publicado en 20/12/2013 21:45

    Video aula cade? Foda essa musica !

  • dinricci dinricci: Publicado en 10/10/2013 20:50

    Na minha opniao.. pegam as notas e tentam tirar d ouvido..
    hj em dia pra aprender a tocar ta de mao beijada e msmo assim vcs reclama \o. af

  • Mário Mário: Publicado en 12/09/2013 15:54

    E galera esquece.. esse pessoal do cifra club, nunca colocam video -aula de musica punk

  • brunoiung brunoiung: Publicado en 17/02/2013 23:55

    essa tab ta meio confusa

  • rockeiralinda rockeiralinda: Publicado en 19/12/2012 14:26

    seria bom se tivesse video aula =)

  • pedro.lauriano pedro.lauriano: Publicado en 03/10/2012 22:07

    Uma video-aula dessa musica faria muito bem...

  • nicole.mathias nicole.mathias: Publicado en 26/09/2012 14:36

    umas video aula do ramones ia bem :)

Exhibiendo 10 de 15 comentarios Mostrar más ver todo »
Composición: Beto Silva / Daniel Rey / Dee Dee Ramone / Max Martin / Ricardo Confessori / Takahiro Watanabe
Ese no és el compositor? Avisenos.
Contribución: Álvaro Correcciónes: r.biarose e mais 2 »
  1. Sweet Child O' Mine - Guns N' Roses mantiene 2.746 exhibiciones
  2. Wonderwall - Oasis mantiene 1.998 exhibiciones
  3. When I Was Your Man - Bruno Mars mantiene 1.623 exhibiciones
  4. Nothing Else Matters - Metallica mantiene 1.570 exhibiciones
  5. Stairway To Heaven - Led Zeppelin mantiene 1.549 exhibiciones
  6. Hey Jude - The Beatles mantiene 1.442 exhibiciones
  7. All Of Me - John Legend mantiene 1.420 exhibiciones
  8. More Than Words - Extreme mantiene 1.346 exhibiciones
  9. The Scientist - Coldplay mantiene 1.313 exhibiciones
  10. Wake Me Up - Avicii mantiene 1.140 exhibiciones
  1. The Beatles- mantiene 20.830 exhibiciones
  2. Guns N' Roses- mantiene 6.945 exhibiciones
  3. Metallica- mantiene 6.797 exhibiciones
  4. Coldplay- mantiene 5.138 exhibiciones
  5. One Direction- mantiene 5.035 exhibiciones
  6. Red Hot Chili Peppers- mantiene 4.876 exhibiciones
  7. Nirvana- mantiene 4.876 exhibiciones
  8. Bruno Mars- mantiene 4.760 exhibiciones
  9. Oasis- mantiene 4.399 exhibiciones
  10. Green Day- mantiene 3.558 exhibiciones
Exhibir acordes »

Acordes y tabs

Aprenda

Studio Sol

©1996 - 2014 Cifra Club · el primero, mayor y más accedido del Brasil · 335 mil músicas · 6.1 millones de personas registradas

publicidad
cerrar