Make It Wit Chu

Queens Of The Stone Age

 Queens Of The Stone Age
Tono: G
		
Intro:


E|--------------------------------------------------------------------------------| » (2x)
B|--------------------------------------------------------------------------------|
G|--------------------------------------------------------------------------------|
D|---------------------------9-9-9-7-7-7-7------9-9----9-9-----9-9------9-9-------|
A|--10-10-10-10-10-10-10-10--7-7-7-7-7-7-7------7-7----7-7-----7-7------7-7-------|
E|--8--8--8--8--8--8--8--8-----------------0-0-----0-0-----0-0------0-0-----------|



(Harmônicos Naturais ------------------------------------------------------)
E|------12-----------12----------------------------------------------------| » Guitarra 2
B|------------------------12-----------12~---------------------------------|
G|---------------5-----------------7---------------------------------------| » (2x)
D|-----------5-----------------7-------------------------------------------|
A|-------------------------------------------------------------------------|
E|-------------------------------------------------------------------------|


Solo #1

E|---------------------------------------------------------------------------|
B|---------------------------------------------------------------------------|
G|---------------------------------------------------------------------------|
D|--------5----5--7--7b--5--7--7b--------5--------------------------7b~------|
A|--5--7----7~---------------------5--7----7--5--7-----5--7-----7~-----------|
E|--------------------------------------------------7--------3---------------|


Verso #1:

You wanna know if I know why
I can't say that I do
Don't understand the evil eye
Or how one becomes two

I just can't recall what started it all
Or how to begin the end
I ain't here to break it, just see how far it will bend
Again and again, again and again



E|--------------------------------------------------------------------------------| » (4x)
B|--------------------------------------------------------------------------------|
G|--------------------------------------------------------------------------------|
D|---------------------------9-9-9-7-7-7-7------9-9----9-9-----9-9------9-9-------|
A|--10-10-10-10-10-10-10-10--7-7-7-7-7-7-7------7-7----7-7-----7-7------7-7-------|
E|--8--8--8--8--8--8--8--8-----------------0-0-----0-0-----0-0------0-0-----------|


Refrão #1:

I wanna make it
I wanna make it wit chu
(Anytime, anywhere)

I wanna make it
(Again and again and again)
I wanna make it wit chu


E|--------------------------------------------------------------------------------| » (2x)
B|--------------------------------------------------------------------------------|
G|--------------------------------------------------------------------------------|
D|---------------------------9-9-9-7-7-7-7------9-9----9-9-----9-9------9-9-------|
A|--10-10-10-10-10-10-10-10--7-7-7-7-7-7-7------7-7----7-7-----7-7------7-7-------|
E|--8--8--8--8--8--8--8--8-----------------0-0-----0-0-----0-0------0-0-----------|


Verso #2:

Sometimes the same is different
Mostly it's the same
These mysteries of life
That just ain't my thing

If I told you that I knew
About the sun and the moon, I'd be untrue
The only thing I know for sure
Is what I won't do
Anytime, anywhere, I must say, baby



E|--------------------------------------------------------------------------------| » (4x)
B|--------------------------------------------------------------------------------|
G|--------------------------------------------------------------------------------|
D|---------------------------9-9-9-7-7-7-7------9-9----9-9-----9-9------9-9-------|
A|--10-10-10-10-10-10-10-10--7-7-7-7-7-7-7------7-7----7-7-----7-7------7-7-------|
E|--8--8--8--8--8--8--8--8-----------------0-0-----0-0-----0-0------0-0-----------|


Refrão #2:

I wanna make it
I wanna make it wit chu
(Anytime, anywhere)

I wanna make it
(Again and again and again)
I wanna make it wit chu

I wanna make it
I wanna make it wit chu
(Anytime, anywhere)

I wanna make it
(Again and again and again)
I wanna make it wit chu


E|--------------------------------------------------------------------------------| » (4x)
B|--------------------------------------------------------------------------------|
G|--------------------------------------------------------------------------------|
D|---------------------------9-9-9-7-7-7-7------9-9----9-9-----9-9------9-9-------|
A|--10-10-10-10-10-10-10-10--7-7-7-7-7-7-7------7-7----7-7-----7-7------7-7-------|
E|--8--8--8--8--8--8--8--8-----------------0-0-----0-0-----0-0------0-0-----------|


Solo:


E|----------------------------------------10b------------------------------|
B|-8-10-10-10-10-10-10-8-10-8~~---8-10---8----10b-----8-10b-8-10-----------|
G|------------------------------------9--------------------------9~~-7-9b~~|
D|-------------------------------------------------------------------------|
A|-------------------------------------------------------------------------|
E|-------------------------------------------------------------------------|



E|-------------------------------------------------------------------------|
B|-------------------------------------------------------------------------|
G|----9b-7-9---------------------------------------------------------------|
D|-------------5-7-7brp5---5-----------7b-7b-5---7p5---5---------5---7-5---|
A|-----------7-----------7-------5-7-----------------7---7---5-7-----------|
E|-------------------------------------------------------------------------|



E|-------------------------------------------------------------------------|
B|---------------------------------------------------8---------------------|
G|-------------------------7-9---------------7---7-9-----9-9b-9~~~---------|
D|--7b-5-7---5-------5-7s9-----7s5-7---5-7s9---9---------------------------|
A|---------7---7-5-7-----------------7-------------------------------------|
E|-------------------------------------------------------------------------|



E|-------------------------------------------------------------------------|
B|--7h8p7---7--------------------------------------------------------------|
G|--------9---9-7~---9p7---7~----------------------------------------------|
D|-----------------------9-----7s5-7s9~------------------------------------|
A|--------------------------------------7p5h7~---5-7----/7-----------------|
E|----------------------------------------------------3--------------------|



E|---------------------7-10-7--------7-----7-------------------------------|
B|-------------------8--------8------10b11-10b12~~-----10b--10-8-10---8~---|
G|-----------------9------------9~~------------------9--------------9---9~-|
D|--(5)------5-9~----------------------------------------------------------|
A|-----(7)-7---------------------------------------------------------------|
E|-------------------------------------------------------------------------|



E|-------------------------------------------------------------------------|
B|--10-----10-----10-------------------------------------------------------|
G|-----9~~----9~~----9~~---------------------------------------------------|
D|-------------------------------------------------------------------------|
A|-------------------------------------------------------------------------|
E|-------------------------------------------------------------------------|


Refrão #3:

I wanna make it
I wanna make it wit chu
(Anytime, anywhere)

I wanna make it
(Again and again and again)
I wanna make it wit chu

I wanna make it
I wanna make it wit chu
(Anytime, anywhere)

I wanna make it
(Again and again and again)
I wanna make it wit chu


E|--------------------------------------------------------------------------------| » (4x)
B|--------------------------------------------------------------------------------|
G|--------------------------------------------------------------------------------|
D|---------------------------9-9-9-7-7-7-7------9-9----9-9-----9-9------9-9-------|
A|--10-10-10-10-10-10-10-10--7-7-7-7-7-7-7------7-7----7-7-----7-7------7-7-------|
E|--8--8--8--8--8--8--8--8-----------------0-0-----0-0-----0-0------0-0-----------|
634 exhibiciónes

Comentarios 0

Composición: Castanets / Fabricio / Horton / Jesus Adrian Romero y Daniel Fraire / Moka Only / T. Hardin
Ese no és el compositor? Avisenos.
Contribución: edudz Correcciónes: Rodrigo »
Exhibir acordes »
publicidad
cerrar