I Want To Break Free

Queen

 Queen
Tono: D
		
                     E
    I want to break free, I want to break free,
    I want to break free from your lies, you're so self satisfied,
              A                           E
    I don't need you. I've got to break free.
          B     A                          E
    God knows, God knows I want to break free.

                    E
    I've fallen in love, I've fallen in love for the first time,
                                    A                   E
    and this time I know it's for real, I've fallen in love, yeah.
          B     A                        E
    God knows, God knows I've fallen in love.

            B               A
    It's strange but it's true,
   B                               A
    I can't get over the way you love me like you do,
         C#m                       F#4         F#
    but I have to be sure, when I walk out that door.
    A         B           C#m        B   A         B           C#m
    Oh, how I want to be free, baby,      oh how I want to be free,
B    A         B              E
    oh, how I want to break free.


  (base)  E A Em
E|----------------------|---------------------------------------------------|
B|----------------------|---------------------------------------------------|
G|----------11--13--13b-|----------11--13--13b----------13b-----------------|
D|------14--------------|------14---------------14-----------14-------------|
A|--14------------------|--14-----------------------14-----------14-12-11/0-|
E|----------------------|---------------------------------------------------|



E|----------------------------------|
B|--14b-----------------------------|
G|-------14-------------------------|
D|-----------14--12-11--------------|
A|----------------------12----------|
E|--------------------------12------|



E|--------------------------------------------|
B|--14b(14)(14)-------------------------------|
G|--------------14-----13---------------------|
D|-----------------14------14-----------------|
A|-----------------------------14--12--11/0---|
E|--------------------------------------------|


(base) Bm A E A


E|----------|
B|--7b===---|
G|----------|  (4 segundos)
D|----------|
A|----------|
E|----------|



E|---------------------------------|----------------------------------------|
B|--9b(9)------9-------9-----------|----------------------------------------|
G|---------9-------9-------9-------|----------------------------------------|
D|-----------9-------9-------9-6-6-|--7---6-----------5b(5)--2-0------------|
A|---------------------------------|--------7--------------------2-0--------|
E|---------------------------------|----------7-5-4------------------3-0h---|


                        E
    But life still goes on,
    I can't get used to, living without, living without, living without you
           A                           E
    by my side, I don't want to live alone, hey.
          B     A                         E
    God knows,      got to make it on my own.
                       B   A                       E
    So baby can't you see,     I've got to break free.
    I've got to break free, I want to break free, yeah,
    I want, I want, I want, I want to break free....

Comentarios 13

  • dany.azevedo.587 dany.azevedo.587: Publicado en 24/11/2014 15:31

    O pessoal que fala que essa música é um hino gay não se informa direito antes de falar, a múscia foi escrita por John Deacon...

  • Pedro Pedro: Publicado en 24/10/2014 18:36

    muito boa

  • joao gabriel joao gabriel: Publicado en 17/10/2013 19:59

    hino gay,ta louco velho,a melhor banda que ja teve na historia,hino gay e o luan santana que tem um monte de bicha gritando pra ele

  • gabrielmoraispereirarock gabrielmoraispereirarock: Publicado en 20/08/2013 14:49

    Super fácil e muito boa pra se tocar na guitarra.
    E para os préconceituosos aqui, por que estão olhando a cifra mesmo?
    /escrevi errado kkkkk

  • mcatunda mcatunda: Publicado en 12/12/2012 15:13

    Preciso de orientação para executar a introdução na versão da indonésia. Ver youtube. Quem puder me esclarecer, agradeço.

  • samnightmare samnightmare: Publicado en 16/11/2012 23:02

    Facinha Facinha

  • luquinha_10 luquinha_10: Publicado en 10/09/2012 08:44

    Quem não curte o melhor do Rock Britânico... cai fora! Não tem nada de música gay, aqui se trata da melhor banda de Rock Britânica.

  • tulio_ tulio_: Publicado en 13/04/2012 12:37

    alguém sabe a batida ?

    • gu7723 gu7723: Publicado en 19/06/2012 21:53

      vc abafa as cordas, e fica batendo para baixo só
      qual quer pegunta fala ae fmz!

  • dodo1303 dodo1303: Publicado en 26/11/2011 18:10

    video aula aew

Exhibiendo 10 de 13 comentarios Mostrar más ver todo »
Composición: Charles Sherrell / K-Reen
Ese no és el compositor? Avisenos.
Contribución: celo Correcciónes: dany.azevedo.587 , Bovo e mais 2 »
Exhibir acordes »
publicidad
cerrar